  0
SECTION
  2
HEADER
  9
$ACADVER
  1
AC1014
  9
$ACADMAINTVER
 70
     9
  9
$DWGCODEPAGE
  3
ANSI_932
  9
$INSBASE
 10
0.0
 20
0.0
 30
0.0
  9
$EXTMIN
 10
328.3178268342417
 20
422.9873363447551
 30
0.0
  9
$EXTMAX
 10
4675.286318829707
 20
2411.104201841646
 30
0.0
  9
$LIMMIN
 10
0.0
 20
0.0
  9
$LIMMAX
 10
5000.0
 20
3000.0
  9
$ORTHOMODE
 70
     0
  9
$REGENMODE
 70
     1
  9
$FILLMODE
 70
     1
  9
$QTEXTMODE
 70
     0
  9
$MIRRTEXT
 70
     0
  9
$DRAGMODE
 70
     2
  9
$LTSCALE
 40
1.0
  9
$OSMODE
 70
    47
  9
$ATTMODE
 70
     1
  9
$TEXTSIZE
 40
2.5
  9
$TRACEWID
 40
1.0
  9
$TEXTSTYLE
  7
STANDARD
  9
$CLAYER
  8
STR
  9
$CELTYPE
  6
BYLAYER
  9
$CECOLOR
 62
   256
  9
$CELTSCALE
 40
1.0
  9
$DELOBJ
 70
     1
  9
$DISPSILH
 70
     0
  9
$DIMSCALE
 40
1.0
  9
$DIMASZ
 40
50.0
  9
$DIMEXO
 40
0.625
  9
$DIMDLI
 40
3.75
  9
$DIMRND
 40
0.0
  9
$DIMDLE
 40
0.0
  9
$DIMEXE
 40
1.25
  9
$DIMTP
 40
0.0
  9
$DIMTM
 40
0.0
  9
$DIMTXT
 40
60.0
  9
$DIMCEN
 40
2.5
  9
$DIMTSZ
 40
0.0
  9
$DIMTOL
 70
     0
  9
$DIMLIM
 70
     0
  9
$DIMTIH
 70
     0
  9
$DIMTOH
 70
     0
  9
$DIMSE1
 70
     0
  9
$DIMSE2
 70
     0
  9
$DIMTAD
 70
     1
  9
$DIMZIN
 70
     8
  9
$DIMBLK
  1
OPEN30
  9
$DIMASO
 70
     1
  9
$DIMSHO
 70
     1
  9
$DIMPOST
  1

  9
$DIMAPOST
  1

  9
$DIMALT
 70
     0
  9
$DIMALTD
 70
     3
  9
$DIMALTF
 40
0.03937007874016
  9
$DIMLFAC
 40
1.0
  9
$DIMTOFL
 70
     1
  9
$DIMTVP
 40
0.0
  9
$DIMTIX
 70
     0
  9
$DIMSOXD
 70
     0
  9
$DIMSAH
 70
     0
  9
$DIMBLK1
  1

  9
$DIMBLK2
  1

  9
$DIMSTYLE
  2
ISO-25-BRGK
  9
$DIMCLRD
 70
     0
  9
$DIMCLRE
 70
     0
  9
$DIMCLRT
 70
     0
  9
$DIMTFAC
 40
1.0
  9
$DIMGAP
 40
30.0
  9
$DIMJUST
 70
     0
  9
$DIMSD1
 70
     0
  9
$DIMSD2
 70
     0
  9
$DIMTOLJ
 70
     0
  9
$DIMTZIN
 70
     8
  9
$DIMALTZ
 70
     0
  9
$DIMALTTZ
 70
     0
  9
$DIMFIT
 70
     3
  9
$DIMUPT
 70
     0
  9
$DIMUNIT
 70
     2
  9
$DIMDEC
 70
     2
  9
$DIMTDEC
 70
     2
  9
$DIMALTU
 70
     2
  9
$DIMALTTD
 70
     3
  9
$DIMTXSTY
  7
STANDARD
  9
$DIMAUNIT
 70
     0
  9
$LUNITS
 70
     2
  9
$LUPREC
 70
     4
  9
$SKETCHINC
 40
1.0
  9
$FILLETRAD
 40
0.0
  9
$AUNITS
 70
     0
  9
$AUPREC
 70
     0
  9
$MENU
  1
.
  9
$ELEVATION
 40
0.0
  9
$PELEVATION
 40
0.0
  9
$THICKNESS
 40
0.0
  9
$LIMCHECK
 70
     0
  9
$BLIPMODE
 70
     0
  9
$CHAMFERA
 40
0.0
  9
$CHAMFERB
 40
0.0
  9
$CHAMFERC
 40
0.0
  9
$CHAMFERD
 40
0.0
  9
$SKPOLY
 70
     0
  9
$TDCREATE
 40
2453462.778056458
  9
$TDUPDATE
 40
2453465.556468993
  9
$TDINDWG
 40
0.1705231944
  9
$TDUSRTIMER
 40
0.1705228241
  9
$USRTIMER
 70
     1
  9
$ANGBASE
 50
0.0
  9
$ANGDIR
 70
     0
  9
$PDMODE
 70
     0
  9
$PDSIZE
 40
0.0
  9
$PLINEWID
 40
0.0
  9
$COORDS
 70
     1
  9
$SPLFRAME
 70
     0
  9
$SPLINETYPE
 70
     6
  9
$SPLINESEGS
 70
     8
  9
$ATTDIA
 70
     0
  9
$ATTREQ
 70
     1
  9
$HANDLING
 70
 22529
  9
$HANDSEED
  5
C53
  9
$SURFTAB1
 70
     6
  9
$SURFTAB2
 70
     6
  9
$SURFTYPE
 70
     6
  9
$SURFU
 70
     6
  9
$SURFV
 70
     6
  9
$UCSNAME
  2

  9
$UCSORG
 10
0.0
 20
0.0
 30
0.0
  9
$UCSXDIR
 10
1.0
 20
0.0
 30
0.0
  9
$UCSYDIR
 10
0.0
 20
1.0
 30
0.0
  9
$PUCSNAME
  2

  9
$PUCSORG
 10
0.0
 20
0.0
 30
0.0
  9
$PUCSXDIR
 10
1.0
 20
0.0
 30
0.0
  9
$PUCSYDIR
 10
0.0
 20
1.0
 30
0.0
  9
$USERI1
 70
     0
  9
$USERI2
 70
     0
  9
$USERI3
 70
     0
  9
$USERI4
 70
     0
  9
$USERI5
 70
     0
  9
$USERR1
 40
0.0
  9
$USERR2
 40
0.0
  9
$USERR3
 40
0.0
  9
$USERR4
 40
0.0
  9
$USERR5
 40
0.0
  9
$WORLDVIEW
 70
     1
  9
$SHADEDGE
 70
     3
  9
$SHADEDIF
 70
    70
  9
$TILEMODE
 70
     1
  9
$MAXACTVP
 70
    48
  9
$PINSBASE
 10
0.0
 20
0.0
 30
0.0
  9
$PLIMCHECK
 70
     0
  9
$PEXTMIN
 10
0.0
 20
0.0
 30
0.0
  9
$PEXTMAX
 10
0.0
 20
0.0
 30
0.0
  9
$PLIMMIN
 10
0.0
 20
0.0
  9
$PLIMMAX
 10
12.0
 20
9.0
  9
$UNITMODE
 70
     0
  9
$VISRETAIN
 70
     1
  9
$PLINEGEN
 70
     0
  9
$PSLTSCALE
 70
     1
  9
$TREEDEPTH
 70
  3020
  9
$PICKSTYLE
 70
     1
  9
$CMLSTYLE
  2
STANDARD
  9
$CMLJUST
 70
     0
  9
$CMLSCALE
 40
20.0
  9
$PROXYGRAPHICS
 70
     1
  9
$MEASUREMENT
 70
     1
  0
ENDSEC
  0
SECTION
  2
CLASSES
  0
CLASS
  1
ACDBDICTIONARYWDFLT
  2
AcDbDictionaryWithDefault
  3
AutoCAD 2000
 90
        0
280
     0
281
     0
  0
CLASS
  1
ACDBPLACEHOLDER
  2
AcDbPlaceHolder
  3
AutoCAD 2000
 90
        0
280
     0
281
     0
  0
CLASS
  1
LAYOUT
  2
AcDbLayout
  3
AutoCAD 2000
 90
        0
280
     0
281
     0
  0
CLASS
  1
DICTIONARYVAR
  2
AcDbDictionaryVar
  3
AutoCAD 2000
 90
        0
280
     0
281
     0
  0
CLASS
  1
DIMASSOC
  2
AcDbDimAssoc
  3
"AcDbDimAssoc|Product Desc:     AcDim ARX App For Dimension|Company:          Autodesk, Inc.|WEB Address:      www.autodesk.com"
 90
        0
280
     0
281
     0
  0
CLASS
  1
LONG_TRANSACTION
  2
AcDbLongTransaction
  3
AutoCAD 2000
 90
        0
280
     0
281
     0
  0
CLASS
  1
LWPOLYLINE
  2
AcDbPolyline
  3
AutoCAD 2000
 90
        0
280
     0
281
     1
  0
CLASS
  1
HATCH
  2
AcDbHatch
  3
AutoCAD 2000
 90
        0
280
     0
281
     1
  0
CLASS
  1
XRECORD
  2
AcDbXrecord
  3
AutoCAD 2000
 90
        0
280
     0
281
     0
  0
CLASS
  1
LONG_TRANSACTION
  2
AcDbLongTransaction
  3
AutoCAD 2000
 90
        0
280
     0
281
     0
  0
CLASS
  1
LWPOLYLINE
  2
AcDbPolyline
  3
AutoCAD 2000
 90
        0
280
     0
281
     1
  0
CLASS
  1
HATCH
  2
AcDbHatch
  3
AutoCAD 2000
 90
        0
280
     0
281
     1
  0
CLASS
  1
XRECORD
  2
AcDbXrecord
  3
AutoCAD 2000
 90
        0
280
     0
281
     0
  0
CLASS
  1
LONG_TRANSACTION
  2
AcDbLongTransaction
  3
AutoCAD 2000
 90
        0
280
     0
281
     0
  0
CLASS
  1
LWPOLYLINE
  2
AcDbPolyline
  3
AutoCAD 2000
 90
        0
280
     0
281
     1
  0
CLASS
  1
HATCH
  2
AcDbHatch
  3
AutoCAD 2000
 90
        0
280
     0
281
     1
  0
CLASS
  1
XRECORD
  2
AcDbXrecord
  3
AutoCAD 2000
 90
        0
280
     0
281
     0
  0
CLASS
  1
LONG_TRANSACTION
  2
AcDbLongTransaction
  3
AutoCAD 2000
 90
        0
280
     0
281
     0
  0
CLASS
  1
LWPOLYLINE
  2
AcDbPolyline
  3
AutoCAD 2000
 90
        0
280
     0
281
     1
  0
CLASS
  1
HATCH
  2
AcDbHatch
  3
AutoCAD 2000
 90
        0
280
     0
281
     1
  0
CLASS
  1
XRECORD
  2
AcDbXrecord
  3
AutoCAD 2000
 90
        0
280
     0
281
     0
  0
ENDSEC
  0
SECTION
  2
TABLES
  0
TABLE
  2
VPORT
  5
8
330
0
100
AcDbSymbolTable
 70
     2
  0
VPORT
  5
C2F
330
8
100
AcDbSymbolTableRecord
100
AcDbViewportTableRecord
  2
*ACTIVE
 70
     0
 10
0.0
 20
0.0
 11
1.0
 21
1.0
 12
2503.293737349942
 22
1502.083630571175
 13
0.0
 23
0.0
 14
10.0
 24
10.0
 15
10.0
 25
10.0
 16
0.0
 26
0.0
 36
1.0
 17
0.0
 27
0.0
 37
0.0
 40
5565.361689869318
 41
1.580912863070539
 42
50.0
 43
0.0
 44
0.0
 50
0.0
 51
0.0
 71
     0
 72
  1000
 73
     1
 74
     3
 75
     0
 76
     0
 77
     0
 78
     0
  0
ENDTAB
  0
TABLE
  2
LTYPE
  5
5
330
0
100
AcDbSymbolTable
 70
     3
  0
LTYPE
  5
14
330
5
100
AcDbSymbolTableRecord
100
AcDbLinetypeTableRecord
  2
BYBLOCK
 70
     0
  3

 72
    65
 73
     0
 40
0.0
  0
LTYPE
  5
15
330
5
100
AcDbSymbolTableRecord
100
AcDbLinetypeTableRecord
  2
BYLAYER
 70
     0
  3

 72
    65
 73
     0
 40
0.0
  0
LTYPE
  5
16
330
5
100
AcDbSymbolTableRecord
100
AcDbLinetypeTableRecord
  2
CONTINUOUS
 70
     0
  3
Solid line
 72
    65
 73
     0
 40
0.0
  0
LTYPE
  5
122
330
5
100
AcDbSymbolTableRecord
100
AcDbLinetypeTableRecord
  2
CENTER
 70
     0
  3
Center ____ _ ____ _ ____ _ ____ _ ____ _ ____
 72
    65
 73
     4
 40
50.8
 49
31.75
 74
     0
 49
-6.349999999999999
 74
     0
 49
6.349999999999999
 74
     0
 49
-6.349999999999999
 74
     0
  0
LTYPE
  5
123
330
5
100
AcDbSymbolTableRecord
100
AcDbLinetypeTableRecord
  2
HIDDEN
 70
     0
  3
Hidden __ __ __ __ __ __ __ __ __ __ __ __ __ _
 72
    65
 73
     2
 40
9.524999999999998
 49
6.349999999999999
 74
     0
 49
-3.174999999999999
 74
     0
  0
ENDTAB
  0
TABLE
  2
LAYER
  5
2
330
0
100
AcDbSymbolTable
 70
     4
  0
LAYER
  5
10
330
2
100
AcDbSymbolTableRecord
100
AcDbLayerTableRecord
  2
0
 70
     0
 62
     7
  6
CONTINUOUS
  0
LAYER
  5
124
330
2
100
AcDbSymbolTableRecord
100
AcDbLayerTableRecord
  2
STR
 70
     0
 62
     7
  6
CONTINUOUS
  0
LAYER
  5
125
330
2
100
AcDbSymbolTableRecord
100
AcDbLayerTableRecord
  2
BMK
 70
     0
 62
     1
  6
CENTER
  0
LAYER
  5
126
330
2
100
AcDbSymbolTableRecord
100
AcDbLayerTableRecord
  2
DEFPOINTS
 70
     0
 62
     7
  6
CONTINUOUS
  0
ENDTAB
  0
TABLE
  2
STYLE
  5
3
330
0
100
AcDbSymbolTable
 70
     1
  0
STYLE
  5
11
330
3
100
AcDbSymbolTableRecord
100
AcDbTextStyleTableRecord
  2
STANDARD
 70
     0
 40
0.0
 41
1.0
 50
0.0
 71
     0
 42
2.5
  3
txt.shx
  4
bigfont.shx
  0
ENDTAB
  0
TABLE
  2
VIEW
  5
6
330
0
100
AcDbSymbolTable
 70
     0
  0
ENDTAB
  0
TABLE
  2
UCS
  5
7
330
0
100
AcDbSymbolTable
 70
     0
  0
ENDTAB
  0
TABLE
  2
APPID
  5
9
330
0
100
AcDbSymbolTable
 70
     1
  0
APPID
  5
12
330
9
100
AcDbSymbolTableRecord
100
AcDbRegAppTableRecord
  2
ACAD
 70
     0
  0
ENDTAB
  0
TABLE
  2
DIMSTYLE
  5
A
330
0
100
AcDbSymbolTable
 70
     1
  0
DIMSTYLE
105
127
330
A
100
AcDbSymbolTableRecord
100
AcDbDimStyleTableRecord
  2
ISO-25-BRGK
 70
     0
  3

  4

  5
OPEN30
  6

  7

 40
1.0
 41
50.0
 42
0.625
 43
3.75
 44
1.25
 45
0.0
 46
0.0
 47
0.0
 48
0.0
140
60.0
141
2.5
142
0.0
143
0.03937007874016
144
1.0
145
0.0
146
1.0
147
30.0
 71
     0
 72
     0
 73
     0
 74
     0
 75
     0
 76
     0
 77
     1
 78
     8
170
     0
171
     3
172
     1
173
     0
174
     0
175
     0
176
     0
177
     0
178
     0
270
     2
271
     2
272
     2
273
     2
274
     3
340
11
275
     0
280
     0
281
     0
282
     0
283
     0
284
     8
285
     0
286
     0
287
     3
288
     0
  0
ENDTAB
  0
TABLE
  2
BLOCK_RECORD
  5
1
330
0
100
AcDbSymbolTable
 70
    14
  0
BLOCK_RECORD
  5
1F
102
{ACAD_XDICTIONARY
360
A81
102
}
330
1
100
AcDbSymbolTableRecord
100
AcDbBlockTableRecord
  2
*MODEL_SPACE
  0
BLOCK_RECORD
  5
9CF
102
{ACAD_XDICTIONARY
360
A83
102
}
330
1
100
AcDbSymbolTableRecord
100
AcDbBlockTableRecord
  2
*PAPER_SPACE
  0
BLOCK_RECORD
  5
9F
330
1
100
AcDbSymbolTableRecord
100
AcDbBlockTableRecord
  2
_OPEN30
  0
BLOCK_RECORD
  5
ED
330
1
100
AcDbSymbolTableRecord
100
AcDbBlockTableRecord
  2
_NONE
  0
BLOCK_RECORD
  5
313
330
1
100
AcDbSymbolTableRecord
100
AcDbBlockTableRecord
  2
*D2
  0
BLOCK_RECORD
  5
32B
330
1
100
AcDbSymbolTableRecord
100
AcDbBlockTableRecord
  2
*D3
  0
BLOCK_RECORD
  5
337
330
1
100
AcDbSymbolTableRecord
100
AcDbBlockTableRecord
  2
*D4
  0
BLOCK_RECORD
  5
345
330
1
100
AcDbSymbolTableRecord
100
AcDbBlockTableRecord
  2
*D5
  0
BLOCK_RECORD
  5
35A
330
1
100
AcDbSymbolTableRecord
100
AcDbBlockTableRecord
  2
*D6
  0
BLOCK_RECORD
  5
366
330
1
100
AcDbSymbolTableRecord
100
AcDbBlockTableRecord
  2
*D7
  0
BLOCK_RECORD
  5
37E
330
1
100
AcDbSymbolTableRecord
100
AcDbBlockTableRecord
  2
*D8
  0
BLOCK_RECORD
  5
38A
330
1
100
AcDbSymbolTableRecord
100
AcDbBlockTableRecord
  2
*D9
  0
BLOCK_RECORD
  5
396
330
1
100
AcDbSymbolTableRecord
100
AcDbBlockTableRecord
  2
*D10
  0
BLOCK_RECORD
  5
3AB
330
1
100
AcDbSymbolTableRecord
100
AcDbBlockTableRecord
  2
*D11
  0
BLOCK_RECORD
  5
5CC
330
1
100
AcDbSymbolTableRecord
100
AcDbBlockTableRecord
  2
*D12
  0
BLOCK_RECORD
  5
966
330
1
100
AcDbSymbolTableRecord
100
AcDbBlockTableRecord
  2
*D13
  0
ENDTAB
  0
ENDSEC
  0
SECTION
  2
BLOCKS
  0
BLOCK
  5
20
330
1F
100
AcDbEntity
  8
0
100
AcDbBlockBegin
  2
*MODEL_SPACE
 70
     0
 10
0.0
 20
0.0
 30
0.0
  3
*MODEL_SPACE
  1

  0
ENDBLK
  5
21
330
1F
100
AcDbEntity
  8
0
100
AcDbBlockEnd
  0
BLOCK
  5
9D1
330
9CF
100
AcDbEntity
 67
     1
  8
0
100
AcDbBlockBegin
  2
*PAPER_SPACE
 70
     0
 10
0.0
 20
0.0
 30
0.0
  3
*PAPER_SPACE
  1

  0
ENDBLK
  5
9D2
330
9CF
100
AcDbEntity
 67
     1
  8
0
100
AcDbBlockEnd
  0
BLOCK
  5
A0
330
9F
100
AcDbEntity
  8
0
100
AcDbBlockBegin
  2
_OPEN30
 70
     0
 10
0.0
 20
0.0
 30
0.0
  3
_OPEN30
  1

  0
LINE
  5
A1
330
9F
100
AcDbEntity
  8
0
  6
BYBLOCK
 62
     0
100
AcDbLine
 10
-1.0
 20
0.26794919
 30
0.0
 11
0.0
 21
0.0
 31
0.0
  0
LINE
  5
A2
330
9F
100
AcDbEntity
  8
0
  6
BYBLOCK
 62
     0
100
AcDbLine
 10
0.0
 20
0.0
 30
0.0
 11
-1.0
 21
-0.26794919
 31
0.0
  0
LINE
  5
A3
330
9F
100
AcDbEntity
  8
0
  6
BYBLOCK
 62
     0
100
AcDbLine
 10
0.0
 20
0.0
 30
0.0
 11
-1.0
 21
0.0
 31
0.0
  0
ENDBLK
  5
A4
330
9F
100
AcDbEntity
  8
0
100
AcDbBlockEnd
  0
BLOCK
  5
EE
330
ED
100
AcDbEntity
  8
0
100
AcDbBlockBegin
  2
_NONE
 70
     0
 10
0.0
 20
0.0
 30
0.0
  3
_NONE
  1

  0
ENDBLK
  5
EF
330
ED
100
AcDbEntity
  8
0
100
AcDbBlockEnd
  0
BLOCK
  5
31D
330
313
100
AcDbEntity
  8
0
100
AcDbBlockBegin
  2
*D2
 70
     1
 10
0.0
 20
0.0
 30
0.0
  3
*D2
  1

  0
LINE
  5
98F
330
313
100
AcDbEntity
  8
STR
 62
     0
100
AcDbLine
 10
2071.716960442935
 20
2057.044985447013
 30
0.0
 11
2071.716960442935
 21
2322.354201841646
 31
0.0
  0
LINE
  5
990
330
313
100
AcDbEntity
  8
STR
 62
     0
100
AcDbLine
 10
2781.716960442935
 20
2057.669985447013
 30
0.0
 11
2781.716960442935
 21
2322.354201841646
 31
0.0
  0
LINE
  5
991
330
313
100
AcDbEntity
  8
STR
 62
     0
100
AcDbLine
 10
2121.716960442935
 20
2321.104201841646
 30
0.0
 11
2731.716960442935
 21
2321.104201841646
 31
0.0
  0
INSERT
  5
992
330
313
100
AcDbEntity
  8
STR
 62
     0
100
AcDbBlockReference
  2
_OPEN30
 10
2071.716960442935
 20
2321.104201841646
 30
0.0
 41
50.0
 42
50.0
 43
50.0
 50
180.0
  0
INSERT
  5
993
330
313
100
AcDbEntity
  8
STR
 62
     0
100
AcDbBlockReference
  2
_OPEN30
 10
2781.716960442935
 20
2321.104201841646
 30
0.0
 41
50.0
 42
50.0
 43
50.0
  0
MTEXT
  5
994
330
313
100
AcDbEntity
  8
STR
 62
     0
100
AcDbMText
 10
2426.716960442935
 20
2381.104201841646
 30
0.0
 40
60.0
 41
0.0
 71
     5
 72
     1
  1
710
1001
ACAD
1000
MTEXTBEGIN
1070
    73
1070
     1
1070
    44
1040
1.0
1070
    74
1070
     0
1000
MTEXTEND
  0
POINT
  5
995
330
313
100
AcDbEntity
  8
DEFPOINTS
 62
     0
100
AcDbPoint
 10
2071.716960442935
 20
2056.419985447013
 30
0.0
  0
POINT
  5
996
330
313
100
AcDbEntity
  8
DEFPOINTS
 62
     0
100
AcDbPoint
 10
2781.716960442935
 20
2057.044985447013
 30
0.0
  0
POINT
  5
997
330
313
100
AcDbEntity
  8
DEFPOINTS
 62
     0
100
AcDbPoint
 10
2781.716960442935
 20
2321.104201841646
 30
0.0
  0
ENDBLK
  5
31E
330
313
100
AcDbEntity
  8
0
100
AcDbBlockEnd
  0
BLOCK
  5
335
330
32B
100
AcDbEntity
  8
0
100
AcDbBlockBegin
  2
*D3
 70
     1
 10
0.0
 20
0.0
 30
0.0
  3
*D3
  1

  0
LINE
  5
B77
330
32B
100
AcDbEntity
  8
STR
 62
     0
100
AcDbLine
 10
774.3605321972681
 20
975.3074163529495
 30
0.0
 11
773.7355321972682
 21
975.3074163529495
 31
0.0
  0
LINE
  5
B78
330
32B
100
AcDbEntity
  8
STR
 62
     0
100
AcDbLine
 10
581.4688740467581
 20
1325.307416352949
 30
0.0
 11
776.2355321972683
 21
1325.307416352949
 31
0.0
  0
LINE
  5
B79
330
32B
100
AcDbEntity
  8
STR
 62
     0
100
AcDbLine
 10
774.9855321972682
 20
1025.307416352949
 30
0.0
 11
774.9855321972682
 21
1275.307416352949
 31
0.0
  0
MTEXT
  5
B7A
330
32B
100
AcDbEntity
  8
STR
 62
     0
100
AcDbMText
 10
714.9855321972681
 20
1216.147526229439
 30
0.0
 40
60.0
 41
0.0
 71
     5
 72
     1
  1
350
 11
0.0000000000000001
 21
1.0
 31
0.0
1001
ACAD
1000
MTEXTBEGIN
1070
    73
1070
     1
1070
    44
1040
1.0
1070
    74
1070
     0
1000
MTEXTEND
  0
INSERT
  5
B7B
330
32B
100
AcDbEntity
  8
STR
 62
     0
100
AcDbBlockReference
  2
_OPEN30
 10
774.9855321972682
 20
975.3074163529495
 30
0.0
 41
50.0
 42
50.0
 43
50.0
 50
270.0
  0
INSERT
  5
B7C
330
32B
100
AcDbEntity
  8
STR
 62
     0
100
AcDbBlockReference
  2
_OPEN30
 10
774.9855321972683
 20
1325.307416352949
 30
0.0
 41
50.0
 42
50.0
 43
50.0
 50
90.0
  0
POINT
  5
B7D
330
32B
100
AcDbEntity
  8
DEFPOINTS
 62
     0
100
AcDbPoint
 10
774.9855321972682
 20
975.3074163529495
 30
0.0
  0
POINT
  5
B7E
330
32B
100
AcDbEntity
  8
DEFPOINTS
 62
     0
100
AcDbPoint
 10
580.8438740467582
 20
1325.307416352949
 30
0.0
  0
POINT
  5
B7F
330
32B
100
AcDbEntity
  8
DEFPOINTS
 62
     0
100
AcDbPoint
 10
774.9855321972683
 20
1325.307416352949
 30
0.0
  0
ENDBLK
  5
336
330
32B
100
AcDbEntity
  8
0
100
AcDbBlockEnd
  0
BLOCK
  5
343
330
337
100
AcDbEntity
  8
0
100
AcDbBlockBegin
  2
*D4
 70
     1
 10
0.0
 20
0.0
 30
0.0
  3
*D4
  1

  0
LINE
  5
B80
330
337
100
AcDbEntity
  8
STR
 62
     0
100
AcDbLine
 10
669.3960098661057
 20
950.3074163529493
 30
0.0
 11
615.0159260917762
 21
950.3074163529493
 31
0.0
  0
LINE
  5
B81
330
337
100
AcDbEntity
  8
STR
 62
     0
100
AcDbLine
 10
801.3233671967519
 20
975.3074163529488
 30
0.0
 11
615.0159260917762
 21
975.307416352949
 31
0.0
  0
LINE
  5
B82
330
337
100
AcDbEntity
  8
STR
 62
     0
100
AcDbLine
 10
616.2659260917762
 20
900.3074163529493
 30
0.0
 11
616.2659260917762
 21
850.3074163529493
 31
0.0
  0
LINE
  5
B83
330
337
100
AcDbEntity
  8
STR
 62
     0
100
AcDbLine
 10
616.2659260917762
 20
1025.307416352948
 30
0.0
 11
616.2659260917762
 21
1075.307416352948
 31
0.0
  0
MTEXT
  5
B84
330
337
100
AcDbEntity
  8
STR
 62
     0
100
AcDbMText
 10
556.2659260917761
 20
1000.307416352949
 30
0.0
 40
60.0
 41
0.0
 71
     5
 72
     1
  1
25
 11
0.0000000000000001
 21
1.0
 31
0.0
1001
ACAD
1000
MTEXTBEGIN
1070
    73
1070
     1
1070
    44
1040
1.0
1070
    74
1070
     0
1000
MTEXTEND
  0
LINE
  5
B85
330
337
100
AcDbEntity
  8
STR
 62
     0
100
AcDbLine
 10
616.2659260917762
 20
950.3074163529493
 30
0.0
 11
616.2659260917762
 21
975.307416352949
 31
0.0
  0
INSERT
  5
B86
330
337
100
AcDbEntity
  8
STR
 62
     0
100
AcDbBlockReference
  2
_OPEN30
 10
616.2659260917762
 20
950.3074163529493
 30
0.0
 41
50.0
 42
50.0
 43
50.0
 50
90.0
  0
INSERT
  5
B87
330
337
100
AcDbEntity
  8
STR
 62
     0
100
AcDbBlockReference
  2
_OPEN30
 10
616.2659260917762
 20
975.307416352949
 30
0.0
 41
50.0
 42
50.0
 43
50.0
 50
270.0
  0
POINT
  5
B88
330
337
100
AcDbEntity
  8
DEFPOINTS
 62
     0
100
AcDbPoint
 10
670.0210098661057
 20
950.3074163529493
 30
0.0
  0
POINT
  5
B89
330
337
100
AcDbEntity
  8
DEFPOINTS
 62
     0
100
AcDbPoint
 10
801.9483671967519
 20
975.3074163529488
 30
0.0
  0
POINT
  5
B8A
330
337
100
AcDbEntity
  8
DEFPOINTS
 62
     0
100
AcDbPoint
 10
616.2659260917762
 20
975.307416352949
 30
0.0
  0
ENDBLK
  5
344
330
337
100
AcDbEntity
  8
0
100
AcDbBlockEnd
  0
BLOCK
  5
34F
330
345
100
AcDbEntity
  8
0
100
AcDbBlockBegin
  2
*D5
 70
     1
 10
0.0
 20
0.0
 30
0.0
  3
*D5
  1

  0
LINE
  5
9ED
330
345
100
AcDbEntity
  8
STR
 62
     0
100
AcDbLine
 10
669.3960098661055
 20
720.3074163529495
 30
0.0
 11
615.0159260917761
 21
720.3074163529495
 31
0.0
  0
LINE
  5
9EE
330
345
100
AcDbEntity
  8
STR
 62
     0
100
AcDbLine
 10
669.3960098661057
 20
950.3074163529493
 30
0.0
 11
615.0159260917762
 21
950.3074163529493
 31
0.0
  0
LINE
  5
9EF
330
345
100
AcDbEntity
  8
STR
 62
     0
100
AcDbLine
 10
616.2659260917762
 20
770.3074163529495
 30
0.0
 11
616.2659260917762
 21
900.3074163529493
 31
0.0
  0
INSERT
  5
9F0
330
345
100
AcDbEntity
  8
STR
 62
     0
100
AcDbBlockReference
  2
_OPEN30
 10
616.2659260917761
 20
720.3074163529495
 30
0.0
 41
50.0
 42
50.0
 43
50.0
 50
270.0
  0
INSERT
  5
9F1
330
345
100
AcDbEntity
  8
STR
 62
     0
100
AcDbBlockReference
  2
_OPEN30
 10
616.2659260917762
 20
950.3074163529493
 30
0.0
 41
50.0
 42
50.0
 43
50.0
 50
90.0
  0
MTEXT
  5
9F2
330
345
100
AcDbEntity
  8
STR
 62
     0
100
AcDbMText
 10
556.265926091776
 20
835.3074163529495
 30
0.0
 40
60.0
 41
0.0
 71
     5
 72
     1
  1
230
 11
0.0000000000000001
 21
1.0
 31
0.0
1001
ACAD
1000
MTEXTBEGIN
1070
    73
1070
     1
1070
    44
1040
1.0
1070
    74
1070
     0
1000
MTEXTEND
  0
POINT
  5
9F3
330
345
100
AcDbEntity
  8
DEFPOINTS
 62
     0
100
AcDbPoint
 10
670.0210098661054
 20
720.3074163529495
 30
0.0
  0
POINT
  5
9F4
330
345
100
AcDbEntity
  8
DEFPOINTS
 62
     0
100
AcDbPoint
 10
670.0210098661057
 20
950.3074163529493
 30
0.0
  0
POINT
  5
9F5
330
345
100
AcDbEntity
  8
DEFPOINTS
 62
     0
100
AcDbPoint
 10
616.2659260917762
 20
950.3074163529493
 30
0.0
  0
ENDBLK
  5
350
330
345
100
AcDbEntity
  8
0
100
AcDbBlockEnd
  0
BLOCK
  5
364
330
35A
100
AcDbEntity
  8
0
100
AcDbBlockBegin
  2
*D6
 70
     1
 10
0.0
 20
0.0
 30
0.0
  3
*D6
  1

  0
LINE
  5
9AD
330
35A
100
AcDbEntity
  8
STR
 62
     0
100
AcDbLine
 10
1244.785169919239
 20
1525.307416352949
 30
0.0
 11
1244.160169919239
 21
1525.307416352949
 31
0.0
  0
LINE
  5
9AE
330
35A
100
AcDbEntity
  8
STR
 62
     0
100
AcDbLine
 10
1244.785169919239
 20
1125.307416352949
 30
0.0
 11
1244.160169919239
 21
1125.307416352949
 31
0.0
  0
LINE
  5
9AF
330
35A
100
AcDbEntity
  8
STR
 62
     0
100
AcDbLine
 10
1245.410169919239
 20
1475.307416352949
 30
0.0
 11
1245.410169919239
 21
1175.307416352949
 31
0.0
  0
INSERT
  5
9B0
330
35A
100
AcDbEntity
  8
STR
 62
     0
100
AcDbBlockReference
  2
_OPEN30
 10
1245.410169919239
 20
1525.307416352949
 30
0.0
 41
50.0
 42
50.0
 43
50.0
 50
90.0
  0
INSERT
  5
9B1
330
35A
100
AcDbEntity
  8
STR
 62
     0
100
AcDbBlockReference
  2
_OPEN30
 10
1245.410169919239
 20
1125.307416352949
 30
0.0
 41
50.0
 42
50.0
 43
50.0
 50
270.0
  0
MTEXT
  5
9B2
330
35A
100
AcDbEntity
  8
STR
 62
     0
100
AcDbMText
 10
1185.410169919239
 20
1325.307416352949
 30
0.0
 40
60.0
 41
0.0
 71
     5
 72
     1
  1
　
 11
0.0000000000000001
 21
1.0
 31
0.0
1001
ACAD
1000
MTEXTBEGIN
1070
    73
1070
     1
1070
    44
1040
1.0
1070
    74
1070
     0
1000
MTEXTEND
  0
POINT
  5
9B3
330
35A
100
AcDbEntity
  8
DEFPOINTS
 62
     0
100
AcDbPoint
 10
1245.410169919239
 20
1525.307416352949
 30
0.0
  0
POINT
  5
9B4
330
35A
100
AcDbEntity
  8
DEFPOINTS
 62
     0
100
AcDbPoint
 10
1245.410169919239
 20
1125.307416352949
 30
0.0
  0
POINT
  5
9B5
330
35A
100
AcDbEntity
  8
DEFPOINTS
 62
     0
100
AcDbPoint
 10
1245.410169919239
 20
1125.307416352949
 30
0.0
  0
ENDBLK
  5
365
330
35A
100
AcDbEntity
  8
0
100
AcDbBlockEnd
  0
BLOCK
  5
370
330
366
100
AcDbEntity
  8
0
100
AcDbBlockBegin
  2
*D7
 70
     1
 10
0.0
 20
0.0
 30
0.0
  3
*D7
  1

  0
LINE
  5
925
330
366
100
AcDbEntity
  8
STR
 62
     0
100
AcDbLine
 10
3505.286318829709
 20
627.8736488695405
 30
0.0
 11
3505.286318829709
 21
435.1347958447552
 31
0.0
  0
LINE
  5
926
330
366
100
AcDbEntity
  8
STR
 62
     0
100
AcDbLine
 10
4165.286318829708
 20
627.8736488695403
 30
0.0
 11
4165.286318829708
 21
435.1347958447552
 31
0.0
  0
LINE
  5
927
330
366
100
AcDbEntity
  8
STR
 62
     0
100
AcDbLine
 10
3555.286318829709
 20
436.3847958447552
 30
0.0
 11
4115.286318829708
 21
436.3847958447552
 31
0.0
  0
INSERT
  5
928
330
366
100
AcDbEntity
  8
STR
 62
     0
100
AcDbBlockReference
  2
_OPEN30
 10
3505.286318829709
 20
436.3847958447552
 30
0.0
 41
50.0
 42
50.0
 43
50.0
 50
180.0
  0
INSERT
  5
929
330
366
100
AcDbEntity
  8
STR
 62
     0
100
AcDbBlockReference
  2
_OPEN30
 10
4165.286318829708
 20
436.3847958447552
 30
0.0
 41
50.0
 42
50.0
 43
50.0
  0
MTEXT
  5
92A
330
366
100
AcDbEntity
  8
STR
 62
     0
100
AcDbMText
 10
3835.286318829707
 20
496.3847958447551
 30
0.0
 40
60.0
 41
0.0
 71
     5
 72
     1
  1
660
1001
ACAD
1000
MTEXTBEGIN
1070
    73
1070
     1
1070
    44
1040
1.0
1070
    74
1070
     0
1000
MTEXTEND
  0
POINT
  5
92B
330
366
100
AcDbEntity
  8
DEFPOINTS
 62
     0
100
AcDbPoint
 10
3505.286318829709
 20
628.4986488695404
 30
0.0
  0
POINT
  5
92C
330
366
100
AcDbEntity
  8
DEFPOINTS
 62
     0
100
AcDbPoint
 10
4165.286318829708
 20
628.4986488695404
 30
0.0
  0
POINT
  5
92D
330
366
100
AcDbEntity
  8
DEFPOINTS
 62
     0
100
AcDbPoint
 10
4165.286318829708
 20
436.3847958447552
 30
0.0
  0
ENDBLK
  5
371
330
366
100
AcDbEntity
  8
0
100
AcDbBlockEnd
  0
BLOCK
  5
388
330
37E
100
AcDbEntity
  8
0
100
AcDbBlockBegin
  2
*D8
 70
     1
 10
0.0
 20
0.0
 30
0.0
  3
*D8
  1

  0
LINE
  5
8FD
330
37E
100
AcDbEntity
  8
STR
 62
     0
100
AcDbLine
 10
3460.286318829708
 20
2074.835033016332
 30
0.0
 11
3460.286318829708
 21
2312.055658260018
 31
0.0
  0
LINE
  5
8FE
330
37E
100
AcDbEntity
  8
STR
 62
     0
100
AcDbLine
 10
4210.286318829704
 20
2075.460033016332
 30
0.0
 11
4210.286318829704
 21
2312.055658260018
 31
0.0
  0
LINE
  5
8FF
330
37E
100
AcDbEntity
  8
STR
 62
     0
100
AcDbLine
 10
3510.286318829708
 20
2310.805658260018
 30
0.0
 11
4160.286318829705
 21
2310.805658260018
 31
0.0
  0
INSERT
  5
900
330
37E
100
AcDbEntity
  8
STR
 62
     0
100
AcDbBlockReference
  2
_OPEN30
 10
3460.286318829708
 20
2310.805658260018
 30
0.0
 41
50.0
 42
50.0
 43
50.0
 50
180.0
  0
INSERT
  5
901
330
37E
100
AcDbEntity
  8
STR
 62
     0
100
AcDbBlockReference
  2
_OPEN30
 10
4210.286318829704
 20
2310.805658260018
 30
0.0
 41
50.0
 42
50.0
 43
50.0
  0
MTEXT
  5
902
330
37E
100
AcDbEntity
  8
STR
 62
     0
100
AcDbMText
 10
3835.286318829707
 20
2370.805658260018
 30
0.0
 40
60.0
 41
0.0
 71
     5
 72
     1
  1
750
1001
ACAD
1000
MTEXTBEGIN
1070
    73
1070
     1
1070
    44
1040
1.0
1070
    74
1070
     0
1000
MTEXTEND
  0
POINT
  5
903
330
37E
100
AcDbEntity
  8
DEFPOINTS
 62
     0
100
AcDbPoint
 10
3460.286318829708
 20
2074.210033016332
 30
0.0
  0
POINT
  5
904
330
37E
100
AcDbEntity
  8
DEFPOINTS
 62
     0
100
AcDbPoint
 10
4210.286318829704
 20
2074.835033016332
 30
0.0
  0
POINT
  5
905
330
37E
100
AcDbEntity
  8
DEFPOINTS
 62
     0
100
AcDbPoint
 10
4210.286318829704
 20
2310.805658260018
 30
0.0
  0
ENDBLK
  5
389
330
37E
100
AcDbEntity
  8
0
100
AcDbBlockEnd
  0
BLOCK
  5
394
330
38A
100
AcDbEntity
  8
0
100
AcDbBlockBegin
  2
*D9
 70
     1
 10
0.0
 20
0.0
 30
0.0
  3
*D9
  1

  0
LINE
  5
9E4
330
38A
100
AcDbEntity
  8
STR
 62
     0
100
AcDbLine
 10
701.7169604429355
 20
679.5779131856816
 30
0.0
 11
701.7169604429355
 21
478.1331023086279
 31
0.0
  0
LINE
  5
9E5
330
38A
100
AcDbEntity
  8
STR
 62
     0
100
AcDbLine
 10
2781.716960442935
 20
694.6824163529493
 30
0.0
 11
2781.716960442935
 21
478.1331023086279
 31
0.0
  0
LINE
  5
9E6
330
38A
100
AcDbEntity
  8
STR
 62
     0
100
AcDbLine
 10
751.7169604429355
 20
479.3831023086279
 30
0.0
 11
2731.716960442935
 21
479.3831023086279
 31
0.0
  0
INSERT
  5
9E7
330
38A
100
AcDbEntity
  8
STR
 62
     0
100
AcDbBlockReference
  2
_OPEN30
 10
701.7169604429355
 20
479.3831023086279
 30
0.0
 41
50.0
 42
50.0
 43
50.0
 50
180.0
  0
INSERT
  5
9E8
330
38A
100
AcDbEntity
  8
STR
 62
     0
100
AcDbBlockReference
  2
_OPEN30
 10
2781.716960442935
 20
479.3831023086279
 30
0.0
 41
50.0
 42
50.0
 43
50.0
  0
MTEXT
  5
9E9
330
38A
100
AcDbEntity
  8
STR
 62
     0
100
AcDbMText
 10
1741.716960442935
 20
539.3831023086279
 30
0.0
 40
60.0
 41
0.0
 71
     5
 72
     1
  1
2080
1001
ACAD
1000
MTEXTBEGIN
1070
    73
1070
     1
1070
    44
1040
1.0
1070
    74
1070
     0
1000
MTEXTEND
  0
POINT
  5
9EA
330
38A
100
AcDbEntity
  8
DEFPOINTS
 62
     0
100
AcDbPoint
 10
701.7169604429355
 20
680.2029131856816
 30
0.0
  0
POINT
  5
9EB
330
38A
100
AcDbEntity
  8
DEFPOINTS
 62
     0
100
AcDbPoint
 10
2781.716960442935
 20
695.3074163529493
 30
0.0
  0
POINT
  5
9EC
330
38A
100
AcDbEntity
  8
DEFPOINTS
 62
     0
100
AcDbPoint
 10
2781.716960442935
 20
479.3831023086279
 30
0.0
  0
ENDBLK
  5
395
330
38A
100
AcDbEntity
  8
0
100
AcDbBlockEnd
  0
BLOCK
  5
3A0
330
396
100
AcDbEntity
  8
0
100
AcDbBlockBegin
  2
*D10
 70
     1
 10
0.0
 20
0.0
 30
0.0
  3
*D10
  1

  0
LINE
  5
99A
330
396
100
AcDbEntity
  8
STR
 62
     0
100
AcDbLine
 10
2221.716960442936
 20
2056.419985447013
 30
0.0
 11
2221.716960442936
 21
2159.464478992106
 31
0.0
  0
LINE
  5
99B
330
396
100
AcDbEntity
  8
STR
 62
     0
100
AcDbLine
 10
2477.716960442934
 20
2056.419985447013
 30
0.0
 11
2477.716960442934
 21
2159.464478992106
 31
0.0
  0
LINE
  5
99C
330
396
100
AcDbEntity
  8
STR
 62
     0
100
AcDbLine
 10
2271.716960442935
 20
2158.214478992106
 30
0.0
 11
2427.716960442935
 21
2158.214478992106
 31
0.0
  0
INSERT
  5
99D
330
396
100
AcDbEntity
  8
STR
 62
     0
100
AcDbBlockReference
  2
_OPEN30
 10
2221.716960442936
 20
2158.214478992106
 30
0.0
 41
50.0
 42
50.0
 43
50.0
 50
180.0
  0
INSERT
  5
99E
330
396
100
AcDbEntity
  8
STR
 62
     0
100
AcDbBlockReference
  2
_OPEN30
 10
2477.716960442934
 20
2158.214478992106
 30
0.0
 41
50.0
 42
50.0
 43
50.0
  0
MTEXT
  5
99F
330
396
100
AcDbEntity
  8
STR
 62
     0
100
AcDbMText
 10
2349.716960442935
 20
2218.214478992106
 30
0.0
 40
60.0
 41
0.0
 71
     5
 72
     1
  1
256
1001
ACAD
1000
MTEXTBEGIN
1070
    73
1070
     1
1070
    44
1040
1.0
1070
    74
1070
     0
1000
MTEXTEND
  0
POINT
  5
9A0
330
396
100
AcDbEntity
  8
DEFPOINTS
 62
     0
100
AcDbPoint
 10
2221.716960442936
 20
2055.794985447013
 30
0.0
  0
POINT
  5
9A1
330
396
100
AcDbEntity
  8
DEFPOINTS
 62
     0
100
AcDbPoint
 10
2477.716960442934
 20
2055.794985447013
 30
0.0
  0
POINT
  5
9A2
330
396
100
AcDbEntity
  8
DEFPOINTS
 62
     0
100
AcDbPoint
 10
2477.716960442934
 20
2158.214478992106
 30
0.0
  0
ENDBLK
  5
3A1
330
396
100
AcDbEntity
  8
0
100
AcDbBlockEnd
  0
BLOCK
  5
3B5
330
3AB
100
AcDbEntity
  8
0
100
AcDbBlockBegin
  2
*D11
 70
     1
 10
0.0
 20
0.0
 30
0.0
  3
*D11
  1

  0
LINE
  5
8E0
330
3AB
100
AcDbEntity
  8
STR
 62
     0
100
AcDbLine
 10
2807.966960442935
 20
1925.307416352949
 30
0.0
 11
3129.785989782408
 21
1925.307416352949
 31
0.0
  0
LINE
  5
8E1
330
3AB
100
AcDbEntity
  8
STR
 62
     0
100
AcDbLine
 10
2807.341960442935
 20
720.3074163529493
 30
0.0
 11
3129.785989782408
 21
720.3074163529492
 31
0.0
  0
LINE
  5
8E2
330
3AB
100
AcDbEntity
  8
STR
 62
     0
100
AcDbLine
 10
3128.535989782408
 20
1875.307416352949
 30
0.0
 11
3128.535989782408
 21
770.3074163529492
 31
0.0
  0
INSERT
  5
8E3
330
3AB
100
AcDbEntity
  8
STR
 62
     0
100
AcDbBlockReference
  2
_OPEN30
 10
3128.535989782408
 20
1925.307416352949
 30
0.0
 41
50.0
 42
50.0
 43
50.0
 50
90.0
  0
INSERT
  5
8E4
330
3AB
100
AcDbEntity
  8
STR
 62
     0
100
AcDbBlockReference
  2
_OPEN30
 10
3128.535989782408
 20
720.3074163529492
 30
0.0
 41
50.0
 42
50.0
 43
50.0
 50
270.0
  0
MTEXT
  5
8E5
330
3AB
100
AcDbEntity
  8
STR
 62
     0
100
AcDbMText
 10
3068.535989782408
 20
1322.807416352949
 30
0.0
 40
60.0
 41
0.0
 71
     5
 72
     1
  1
1205
 11
0.0000000000000001
 21
1.0
 31
0.0
1001
ACAD
1000
MTEXTBEGIN
1070
    73
1070
     1
1070
    44
1040
1.0
1070
    74
1070
     0
1000
MTEXTEND
  0
POINT
  5
8E6
330
3AB
100
AcDbEntity
  8
DEFPOINTS
 62
     0
100
AcDbPoint
 10
2807.341960442935
 20
1925.307416352949
 30
0.0
  0
POINT
  5
8E7
330
3AB
100
AcDbEntity
  8
DEFPOINTS
 62
     0
100
AcDbPoint
 10
2806.716960442935
 20
720.3074163529493
 30
0.0
  0
POINT
  5
8E8
330
3AB
100
AcDbEntity
  8
DEFPOINTS
 62
     0
100
AcDbPoint
 10
3128.535989782408
 20
720.3074163529492
 30
0.0
  0
ENDBLK
  5
3B6
330
3AB
100
AcDbEntity
  8
0
100
AcDbBlockEnd
  0
BLOCK
  5
5D8
330
5CC
100
AcDbEntity
  8
0
100
AcDbBlockBegin
  2
*D12
 70
     1
 10
0.0
 20
0.0
 30
0.0
  3
*D12
  1

  0
LINE
  5
8E9
330
5CC
100
AcDbEntity
  8
STR
 62
     0
100
AcDbLine
 10
4235.286318829706
 20
1237.182416352949
 30
0.0
 11
4235.286318829706
 21
1123.747311168028
 31
0.0
  0
LINE
  5
8EA
330
5CC
100
AcDbEntity
  8
STR
 62
     0
100
AcDbLine
 10
4385.286318829707
 20
1321.124795217617
 30
0.0
 11
4385.286318829707
 21
1123.747311168028
 31
0.0
  0
LINE
  5
8EB
330
5CC
100
AcDbEntity
  8
STR
 62
     0
100
AcDbLine
 10
4185.286318829707
 20
1124.997311168028
 30
0.0
 11
4135.286318829707
 21
1124.997311168028
 31
0.0
  0
LINE
  5
8EC
330
5CC
100
AcDbEntity
  8
STR
 62
     0
100
AcDbLine
 10
4435.286318829707
 20
1124.997311168028
 30
0.0
 11
4675.286318829707
 21
1124.997311168028
 31
0.0
  0
LINE
  5
8ED
330
5CC
100
AcDbEntity
  8
STR
 62
     0
100
AcDbLine
 10
4235.286318829706
 20
1124.997311168028
 30
0.0
 11
4385.286318829707
 21
1124.997311168028
 31
0.0
  0
INSERT
  5
8EE
330
5CC
100
AcDbEntity
  8
STR
 62
     0
100
AcDbBlockReference
  2
_OPEN30
 10
4235.286318829706
 20
1124.997311168028
 30
0.0
 41
50.0
 42
50.0
 43
50.0
  0
INSERT
  5
8EF
330
5CC
100
AcDbEntity
  8
STR
 62
     0
100
AcDbBlockReference
  2
_OPEN30
 10
4385.286318829707
 20
1124.997311168028
 30
0.0
 41
50.0
 42
50.0
 43
50.0
 50
180.0
  0
MTEXT
  5
8F0
330
5CC
100
AcDbEntity
  8
STR
 62
     0
100
AcDbMText
 10
4580.286318829706
 20
1184.997311168028
 30
0.0
 40
60.0
 41
0.0
 71
     5
 72
     1
  1
150
1001
ACAD
1000
MTEXTBEGIN
1070
    73
1070
     1
1070
    44
1040
1.0
1070
    74
1070
     0
1000
MTEXTEND
  0
POINT
  5
8F1
330
5CC
100
AcDbEntity
  8
DEFPOINTS
 62
     0
100
AcDbPoint
 10
4235.286318829706
 20
1237.807416352948
 30
0.0
  0
POINT
  5
8F2
330
5CC
100
AcDbEntity
  8
DEFPOINTS
 62
     0
100
AcDbPoint
 10
4385.286318829707
 20
1321.749795217617
 30
0.0
  0
POINT
  5
8F3
330
5CC
100
AcDbEntity
  8
DEFPOINTS
 62
     0
100
AcDbPoint
 10
4385.286318829707
 20
1124.997311168028
 30
0.0
  0
ENDBLK
  5
5D9
330
5CC
100
AcDbEntity
  8
0
100
AcDbBlockEnd
  0
BLOCK
  5
970
330
966
100
AcDbEntity
  8
0
100
AcDbBlockBegin
  2
*D13
 70
     1
 10
0.0
 20
0.0
 30
0.0
  3
*D13
  1

  0
LINE
  5
972
330
966
100
AcDbEntity
  8
STR
 62
     0
100
AcDbLine
 10
2967.938975112672
 20
720.3074163529493
 30
0.0
 11
2966.688975112671
 21
720.3074163529493
 31
0.0
  0
LINE
  5
973
330
966
100
AcDbEntity
  8
STR
 62
     0
100
AcDbLine
 10
2967.938975112672
 20
1325.307416352949
 30
0.0
 11
2966.688975112671
 21
1325.307416352949
 31
0.0
  0
LINE
  5
974
330
966
100
AcDbEntity
  8
STR
 62
     0
100
AcDbLine
 10
2967.938975112671
 20
770.3074163529493
 30
0.0
 11
2967.938975112672
 21
1275.307416352949
 31
0.0
  0
INSERT
  5
975
330
966
100
AcDbEntity
  8
STR
 62
     0
100
AcDbBlockReference
  2
_OPEN30
 10
2967.938975112671
 20
720.3074163529493
 30
0.0
 41
50.0
 42
50.0
 43
50.0
 50
270.0
  0
INSERT
  5
976
330
966
100
AcDbEntity
  8
STR
 62
     0
100
AcDbBlockReference
  2
_OPEN30
 10
2967.938975112672
 20
1325.307416352949
 30
0.0
 41
50.0
 42
50.0
 43
50.0
 50
90.0
  0
MTEXT
  5
977
330
966
100
AcDbEntity
  8
STR
 62
     0
100
AcDbMText
 10
2907.938975112671
 20
1022.807416352949
 30
0.0
 40
60.0
 41
0.0
 71
     5
 72
     1
  1
605
 11
0.0000000000000001
 21
1.0
 31
0.0
1001
ACAD
1000
MTEXTBEGIN
1070
    73
1070
     1
1070
    44
1040
1.0
1070
    74
1070
     0
1000
MTEXTEND
  0
POINT
  5
978
330
966
100
AcDbEntity
  8
DEFPOINTS
 62
     0
100
AcDbPoint
 10
2968.563975112672
 20
720.3074163529493
 30
0.0
  0
POINT
  5
979
330
966
100
AcDbEntity
  8
DEFPOINTS
 62
     0
100
AcDbPoint
 10
2968.563975112672
 20
1325.307416352949
 30
0.0
  0
POINT
  5
97A
330
966
100
AcDbEntity
  8
DEFPOINTS
 62
     0
100
AcDbPoint
 10
2967.938975112672
 20
1325.307416352949
 30
0.0
  0
ENDBLK
  5
971
330
966
100
AcDbEntity
  8
0
100
AcDbBlockEnd
  0
ENDSEC
  0
SECTION
  2
ENTITIES
  0
LINE
  5
220
330
1F
100
AcDbEntity
  8
STR
100
AcDbLine
 10
2477.716960442934
 20
1425.273667824336
 30
0.0
 11
2622.116042737029
 21
1425.273667824336
 31
0.0
  0
LINE
  5
221
330
1F
100
AcDbEntity
  8
STR
100
AcDbLine
 10
2477.716960442934
 20
1225.273667824336
 30
0.0
 11
2622.11604273703
 21
1225.273667824336
 31
0.0
  0
LINE
  5
222
330
1F
100
AcDbEntity
  8
STR
100
AcDbLine
 10
2561.138161203426
 20
1766.10052516269
 30
0.0
 11
3045.849907840513
 21
1766.10052516269
 31
0.0
1001
ACAD
1000
DSTYLE
1002
{
1070
   147
1040
30.0
1070
    77
1070
     0
1002
}
  0
LINE
  5
223
330
1F
100
AcDbEntity
  8
STR
100
AcDbLine
 10
2405.376081324543
 20
1364.150659858552
 30
0.0
 11
2561.138161203425
 21
1766.10052516269
 31
0.0
1001
ACAD
1000
DSTYLE
1002
{
1070
   147
1040
30.0
1070
    77
1070
     0
1002
}
  0
LINE
  5
224
330
1F
100
AcDbEntity
  8
STR
100
AcDbLine
 10
509.8129222831203
 20
1922.566531373808
 30
0.0
 11
980.791370715705
 21
1922.566531373808
 31
0.0
1001
ACAD
1000
DSTYLE
1002
{
1070
     5
1000
NONE
1070
    77
1070
     0
1070
   147
1040
0.625
1002
}
  0
LINE
  5
225
330
1F
100
AcDbEntity
  8
STR
100
AcDbLine
 10
499.1033793955434
 20
1570.273667824336
 30
0.0
 11
509.8129222831203
 21
1922.566531373808
 31
0.0
1001
ACAD
1000
DSTYLE
1002
{
1070
     5
1000
NONE
1070
    77
1070
     0
1070
   147
1040
0.625
1002
}
  0
LINE
  5
226
330
1F
100
AcDbEntity
  8
STR
100
AcDbLine
 10
1102.863374852967
 20
1770.04064435438
 30
0.0
 11
1883.248017981051
 21
1770.04064435438
 31
0.0
1001
ACAD
1000
DSTYLE
1002
{
1070
     5
1000
NONE
1070
    77
1070
     0
1070
   147
1040
0.625
1002
}
  0
LINE
  5
227
330
1F
100
AcDbEntity
  8
STR
100
AcDbLine
 10
1244.160169919239
 20
1525.307416352949
 30
0.0
 11
1102.863374852967
 21
1770.04064435438
 31
0.0
1001
ACAD
1000
DSTYLE
1002
{
1070
     5
1000
NONE
1070
    77
1070
     0
1070
   147
1040
0.625
1002
}
  0
LINE
  5
231
330
1F
100
AcDbEntity
  8
STR
100
AcDbLine
 10
3505.286318829707
 20
975.307416352949
 30
0.0
 11
4165.286318829706
 21
975.3074163529488
 31
0.0
  0
LINE
  5
232
330
1F
100
AcDbEntity
  8
STR
100
AcDbLine
 10
2046.716960442935
 20
975.3074163529493
 30
0.0
 11
2638.716960442934
 21
975.3074163529495
 31
0.0
  0
LINE
  5
236
330
1F
100
AcDbEntity
  8
STR
100
AcDbLine
 10
2323.584926086969
 20
1385.273667824336
 30
0.0
 11
2251.716960442937
 21
1313.405702180303
 31
0.0
  0
LINE
  5
237
330
1F
100
AcDbEntity
  8
STR
100
AcDbLine
 10
2394.295604205625
 20
1385.273667824336
 30
0.0
 11
2274.295604205625
 21
1265.273667824336
 31
0.0
  0
LINE
  5
238
330
1F
100
AcDbEntity
  8
STR
100
AcDbLine
 10
2447.716960442935
 20
1367.984345942991
 30
0.0
 11
2345.00628232428
 21
1265.273667824336
 31
0.0
  0
LINE
  5
239
330
1F
100
AcDbEntity
  8
STR
100
AcDbLine
 10
2447.716960442934
 20
1297.273667824336
 30
0.0
 11
2415.716960442934
 21
1265.273667824335
 31
0.0
  0
TEXT
  5
250
330
1F
100
AcDbEntity
  8
STR
100
AcDbText
 10
2567.570662808019
 20
1792.629921238644
 30
0.0
 40
60.0
  1
合同切換装置
100
AcDbText
  0
TEXT
  5
251
330
1F
100
AcDbEntity
  8
STR
100
AcDbText
 10
526.9198362785484
 20
1955.705609420813
 30
0.0
 40
60.0
  1
制御削進ﾍｯﾄﾞ
100
AcDbText
  0
TEXT
  5
252
330
1F
100
AcDbEntity
  8
STR
100
AcDbText
 10
1141.905808718757
 20
1802.691839197234
 30
0.0
 40
60.0
  1
MAXφ500×800l
100
AcDbText
  0
LINE
  5
253
330
1F
100
AcDbEntity
  8
BMK
  6
CENTER
100
AcDbLine
 10
2604.851129988186
 20
1590.824275814532
 30
0.0
 11
2416.96379590281
 21
1590.824275814532
 31
0.0
  0
LINE
  5
254
330
1F
100
AcDbEntity
  8
STR
100
AcDbLine
 10
389.5203900447961
 20
1438.726222132941
 30
0.0
 11
382.4372187236672
 21
1536.154227646115
 31
0.0
  0
LINE
  5
255
330
1F
100
AcDbEntity
  8
STR
100
AcDbLine
 10
382.4372187236668
 20
1536.154227646115
 30
0.0
 11
387.4187298865859
 21
1536.590053400098
 31
0.0
  0
LINE
  5
256
330
1F
100
AcDbEntity
  8
STR
100
AcDbLine
 10
389.520390044796
 20
1438.726222132941
 30
0.0
 11
394.5019012077147
 21
1439.162047886924
 31
0.0
  0
LINE
  5
257
330
1F
100
AcDbEntity
  8
STR
100
AcDbLine
 10
412.4870837772174
 20
1122.822644182341
 30
0.0
 11
405.4039124560886
 21
1220.250649695515
 31
0.0
  0
LINE
  5
258
330
1F
100
AcDbEntity
  8
STR
100
AcDbLine
 10
405.4039124560882
 20
1220.250649695515
 30
0.0
 11
410.3854236190072
 21
1220.686475449498
 31
0.0
  0
LINE
  5
259
330
1F
100
AcDbEntity
  8
STR
100
AcDbLine
 10
412.4870837772173
 20
1122.822644182341
 30
0.0
 11
417.468594940136
 21
1123.258469936324
 31
0.0
  0
LINE
  5
25A
330
1F
100
AcDbEntity
  8
STR
100
AcDbLine
 10
401.307703698519
 20
1276.593413596362
 30
0.0
 11
406.2892148614376
 21
1277.029239350345
 31
0.0
  0
LINE
  5
25B
330
1F
100
AcDbEntity
  8
STR
100
AcDbLine
 10
394.2245323773897
 20
1374.021419109535
 30
0.0
 11
399.2060435403089
 21
1374.457244863519
 31
0.0
  0
LINE
  5
25C
330
1F
100
AcDbEntity
  8
STR
100
AcDbLine
 10
401.307703698519
 20
1276.593413596362
 30
0.0
 11
394.2245323773902
 21
1374.021419109535
 31
0.0
  0
LINE
  5
25D
330
1F
100
AcDbEntity
  8
STR
100
AcDbLine
 10
1966.716960442935
 20
1155.307416352949
 30
0.0
 11
2016.716960442934
 21
1155.307416352949
 31
0.0
  0
LINE
  5
25E
330
1F
100
AcDbEntity
  8
STR
100
AcDbLine
 10
2171.716960442935
 20
1167.714790660698
 30
0.0
 11
2221.716960442936
 21
1167.714790660698
 31
0.0
  0
LINE
  5
25F
330
1F
100
AcDbEntity
  8
STR
100
AcDbLine
 10
2171.716960442935
 20
1520.307416352948
 30
0.0
 11
2221.716960442935
 21
1520.307416352948
 31
0.0
  0
LINE
  5
260
330
1F
100
AcDbEntity
  8
STR
100
AcDbLine
 10
1966.716960442935
 20
1495.307416352949
 30
0.0
 11
2016.716960442935
 21
1495.307416352949
 31
0.0
  0
LINE
  5
261
330
1F
100
AcDbEntity
  8
STR
100
AcDbLine
 10
524.1033793955437
 20
1125.307416352949
 30
0.0
 11
1966.716960442934
 21
1125.307416352948
 31
0.0
  0
LINE
  5
262
330
1F
100
AcDbEntity
  8
STR
100
AcDbLine
 10
524.1033793955439
 20
1525.307416352949
 30
0.0
 11
1966.716960442935
 21
1525.307416352949
 31
0.0
  0
LINE
  5
263
330
1F
100
AcDbEntity
  8
STR
100
AcDbLine
 10
3930.286318829709
 20
845.3074163529491
 30
0.0
 11
4145.286318829706
 21
845.3074163529491
 31
0.0
  0
LINE
  5
264
330
1F
100
AcDbEntity
  8
BMK
  6
CENTER
100
AcDbLine
 10
2751.716960442935
 20
941.5711668602197
 30
0.0
 11
2751.716960442935
 21
689.1097792826476
 31
0.0
  0
ARC
  5
265
330
1F
100
AcDbEntity
  8
STR
100
AcDbCircle
 10
1931.716960442934
 20
1500.307416352949
 30
0.0
 40
5.0
100
AcDbArc
 50
0.0
 51
90.0
  0
ARC
  5
266
330
1F
100
AcDbEntity
  8
STR
100
AcDbCircle
 10
1911.716960442935
 20
1500.307416352949
 30
0.0
 40
5.0
100
AcDbArc
 50
90.0
 51
180.0
  0
ARC
  5
267
330
1F
100
AcDbEntity
  8
STR
100
AcDbCircle
 10
1931.716960442934
 20
1150.307416352948
 30
0.0
 40
5.0
100
AcDbArc
 50
270.0
 51
0.0
  0
ARC
  5
268
330
1F
100
AcDbEntity
  8
STR
100
AcDbCircle
 10
1911.716960442936
 20
1150.307416352948
 30
0.0
 40
5.0
100
AcDbArc
 50
180.0
 51
270.0
  0
LINE
  5
269
330
1F
100
AcDbEntity
  8
STR
100
AcDbLine
 10
2333.716960442936
 20
1385.273667824336
 30
0.0
 11
2333.716960442935
 21
1627.926739274446
 31
0.0
  0
LINE
  5
26A
330
1F
100
AcDbEntity
  8
STR
100
AcDbLine
 10
2363.716960442936
 20
1385.273667824336
 30
0.0
 11
2363.716960442935
 21
1627.926739274446
 31
0.0
  0
LINE
  5
26E
330
1F
100
AcDbEntity
  8
STR
100
AcDbLine
 10
3905.286318829709
 20
770.3074163529491
 30
0.0
 11
3905.286318829709
 21
900.3074163529493
 31
0.0
  0
LINE
  5
270
330
1F
100
AcDbEntity
  8
STR
100
AcDbLine
 10
3930.286318829709
 20
770.3074163529491
 30
0.0
 11
3930.286318829709
 21
900.3074163529493
 31
0.0
  0
LINE
  5
273
330
1F
100
AcDbEntity
  8
STR
100
AcDbLine
 10
3930.286318829709
 20
770.3074163529491
 30
0.0
 11
3905.286318829709
 21
770.3074163529491
 31
0.0
  0
LINE
  5
274
330
1F
100
AcDbEntity
  8
STR
100
AcDbLine
 10
3692.627698099432
 20
900.3074163529493
 30
0.0
 11
3977.944939559984
 21
900.3074163529493
 31
0.0
  0
LINE
  5
275
330
1F
100
AcDbEntity
  8
STR
100
AcDbLine
 10
3692.627698099432
 20
950.307416352949
 30
0.0
 11
3692.627698099432
 21
900.3074163529525
 31
0.0
  0
LINE
  5
276
330
1F
100
AcDbEntity
  8
STR
100
AcDbLine
 10
3662.627698099433
 20
950.307416352949
 30
0.0
 11
3662.627698099433
 21
900.307416352952
 31
0.0
  0
LINE
  5
277
330
1F
100
AcDbEntity
  8
STR
100
AcDbLine
 10
3740.286318829708
 20
770.3074163529491
 30
0.0
 11
3765.286318829707
 21
770.3074163529491
 31
0.0
  0
LINE
  5
278
330
1F
100
AcDbEntity
  8
STR
100
AcDbLine
 10
3605.286318829707
 20
770.3074163529492
 30
0.0
 11
3630.286318829708
 21
770.3074163529492
 31
0.0
  0
LINE
  5
279
330
1F
100
AcDbEntity
  8
STR
100
AcDbLine
 10
3630.286318829707
 20
770.3074163529492
 30
0.0
 11
3630.286318829707
 21
900.3074163529493
 31
0.0
  0
LINE
  5
27A
330
1F
100
AcDbEntity
  8
STR
100
AcDbLine
 10
3740.286318829708
 20
770.3074163529491
 30
0.0
 11
3740.286318829708
 21
900.3074163529493
 31
0.0
  0
LINE
  5
27B
330
1F
100
AcDbEntity
  8
STR
100
AcDbLine
 10
3605.286318829707
 20
770.3074163529492
 30
0.0
 11
3605.286318829707
 21
900.3074163529493
 31
0.0
  0
LINE
  5
27C
330
1F
100
AcDbEntity
  8
STR
100
AcDbLine
 10
3765.286318829708
 20
770.3074163529491
 30
0.0
 11
3765.286318829708
 21
900.3074163529493
 31
0.0
  0
LINE
  5
27F
330
1F
100
AcDbEntity
  8
STR
100
AcDbLine
 10
3505.286318829708
 20
950.3074163529493
 30
0.0
 11
4165.286318829708
 21
950.3074163529491
 31
0.0
  0
LINE
  5
280
330
1F
100
AcDbEntity
  8
STR
100
AcDbLine
 10
3505.286318829708
 20
900.3074163529509
 30
0.0
 11
3662.627698099433
 21
900.307416352952
 31
0.0
  0
CIRCLE
  5
281
330
1F
100
AcDbEntity
  8
STR
100
AcDbCircle
 10
3835.286318829707
 20
845.3074163529491
 30
0.0
 40
30.0
  0
LINE
  5
282
330
1F
100
AcDbEntity
  8
STR
100
AcDbLine
 10
1911.716960442936
 20
1145.307416352949
 30
0.0
 11
1931.716960442934
 21
1145.307416352948
 31
0.0
  0
LINE
  5
283
330
1F
100
AcDbEntity
  8
STR
100
AcDbLine
 10
1911.716960442935
 20
1505.307416352949
 30
0.0
 11
1931.716960442934
 21
1505.307416352949
 31
0.0
  0
LINE
  5
284
330
1F
100
AcDbEntity
  8
BMK
  6
CENTER
100
AcDbLine
 10
2604.851129988186
 20
1125.987303533689
 30
0.0
 11
2416.96379590281
 21
1125.987303533689
 31
0.0
  0
LINE
  5
285
330
1F
100
AcDbEntity
  8
STR
100
AcDbLine
 10
2505.716960442935
 20
1095.2587823766
 30
0.0
 11
2501.472681493461
 21
1095.2587823766
 31
0.0
  0
LINE
  5
286
330
1F
100
AcDbEntity
  8
BMK
  6
CENTER
100
AcDbLine
 10
2604.851129988186
 20
1524.627529172208
 30
0.0
 11
2416.96379590281
 21
1524.627529172208
 31
0.0
  0
LINE
  5
287
330
1F
100
AcDbEntity
  8
STR
100
AcDbLine
 10
2582.11604273703
 20
1095.2587823766
 30
0.0
 11
2501.472681493461
 21
1095.2587823766
 31
0.0
  0
LINE
  5
289
330
1F
100
AcDbEntity
  8
BMK
  6
CENTER
100
AcDbLine
 10
397.5153678001674
 20
1255.273667824335
 30
0.0
 11
524.1033793955434
 21
1255.273667824336
 31
0.0
  0
CIRCLE
  5
28A
330
1F
100
AcDbEntity
  8
STR
100
AcDbCircle
 10
460.8093735978554
 20
1255.273667824335
 30
0.0
 40
40.0
  0
CIRCLE
  5
28B
330
1F
100
AcDbEntity
  8
STR
100
AcDbCircle
 10
460.8093735978554
 20
1255.273667824335
 30
0.0
 40
20.0
  0
CIRCLE
  5
28C
330
1F
100
AcDbEntity
  8
STR
100
AcDbCircle
 10
460.8093735978554
 20
1425.273667824336
 30
0.0
 40
20.0
  0
CIRCLE
  5
28D
330
1F
100
AcDbEntity
  8
STR
100
AcDbCircle
 10
460.8093735978554
 20
1425.273667824336
 30
0.0
 40
40.0
  0
LINE
  5
28E
330
1F
100
AcDbEntity
  8
BMK
  6
CENTER
100
AcDbLine
 10
397.5153678001674
 20
1425.273667824336
 30
0.0
 11
524.1033793955434
 21
1425.273667824336
 31
0.0
  0
LINE
  5
28F
330
1F
100
AcDbEntity
  8
BMK
  6
CENTER
100
AcDbLine
 10
460.8093735978554
 20
1565.273667824336
 30
0.0
 11
460.8093735978554
 21
1115.273667824335
 31
0.0
  0
LINE
  5
290
330
1F
100
AcDbEntity
  8
STR
100
AcDbLine
 10
524.1033793955434
 20
1305.273667824335
 30
0.0
 11
524.1033793955434
 21
1110.273667824336
 31
0.0
  0
LINE
  5
291
330
1F
100
AcDbEntity
  8
STR
100
AcDbLine
 10
404.2357998839381
 20
1305.273667824335
 30
0.0
 11
524.1033793955434
 21
1305.273667824336
 31
0.0
  0
LINE
  5
292
330
1F
100
AcDbEntity
  8
STR
100
AcDbLine
 10
399.1466882895107
 20
1375.273667824336
 30
0.0
 11
524.1033793955434
 21
1375.273667824336
 31
0.0
  0
ARC
  5
293
330
1F
100
AcDbEntity
  8
STR
100
AcDbCircle
 10
499.1033793955434
 20
1570.273667824336
 30
0.0
 40
25.0
100
AcDbArc
 50
0.0
 51
90.0
  0
ARC
  5
294
330
1F
100
AcDbEntity
  8
STR
100
AcDbCircle
 10
410.0345237559948
 20
1570.273667824336
 30
0.0
 40
25.0
100
AcDbArc
 50
90.0
 51
184.749655395253
  0
ARC
  5
295
330
1F
100
AcDbEntity
  8
STR
100
AcDbCircle
 10
499.1033793955434
 20
1110.273667824336
 30
0.0
 40
25.0
100
AcDbArc
 50
270.0
 51
0.0
  0
ARC
  5
296
330
1F
100
AcDbEntity
  8
STR
100
AcDbCircle
 10
443.4772570908037
 20
1110.273667824336
 30
0.0
 40
25.0
100
AcDbArc
 50
184.749655395253
 51
270.0
  0
LINE
  5
297
330
1F
100
AcDbEntity
  8
STR
100
AcDbLine
 10
406.3994440456895
 20
1595.273667824336
 30
0.0
 11
499.1033793955434
 21
1595.273667824335
 31
0.0
  0
LINE
  5
298
330
1F
100
AcDbEntity
  8
STR
100
AcDbLine
 10
443.4772570908037
 20
1085.273667824336
 30
0.0
 11
499.1033793955434
 21
1085.273667824336
 31
0.0
  0
LINE
  5
299
330
1F
100
AcDbEntity
  8
STR
100
AcDbLine
 10
418.5631070775868
 20
1108.20361248234
 30
0.0
 11
385.0829474792461
 21
1568.718405368804
 31
0.0
  0
LINE
  5
29A
330
1F
100
AcDbEntity
  8
STR
100
AcDbLine
 10
524.1033793955434
 20
1570.273667824336
 30
0.0
 11
524.1033793955434
 21
1375.273667824336
 31
0.0
  0
LINE
  5
29B
330
1F
100
AcDbEntity
  8
STR
100
AcDbLine
 10
631.7169604429355
 20
1525.30741635295
 30
0.0
 11
631.7169604429355
 21
1125.307416352949
 31
0.0
  0
LINE
  5
29C
330
1F
100
AcDbEntity
  8
STR
100
AcDbLine
 10
931.7169604429356
 20
1525.307416352949
 30
0.0
 11
931.7169604429357
 21
1125.307416352949
 31
0.0
  0
LINE
  5
29F
330
1F
100
AcDbEntity
  8
BMK
  6
CENTER
100
AcDbLine
 10
893.6800997239013
 20
1000.307416352949
 30
0.0
 11
893.6800997239016
 21
795.30741635295
 31
0.0
  0
LINE
  5
2A0
330
1F
100
AcDbEntity
  8
BMK
  6
CENTER
100
AcDbLine
 10
1893.680099723901
 20
1000.307416352949
 30
0.0
 11
1893.680099723901
 21
795.3074163529495
 31
0.0
  0
LINE
  5
2A1
330
1F
100
AcDbEntity
  8
BMK
  6
CENTER
100
AcDbLine
 10
1393.680099723901
 20
1000.307416352949
 30
0.0
 11
1393.680099723901
 21
795.30741635295
 31
0.0
  0
LINE
  5
2A3
330
1F
100
AcDbEntity
  8
STR
  6
HIDDEN
100
AcDbLine
 10
2656.716960442934
 20
795.3074163529495
 30
0.0
 11
2656.716960442935
 21
950.3074163529493
 31
0.0
  0
LINE
  5
2A5
330
1F
100
AcDbEntity
  8
STR
100
AcDbLine
 10
2656.716960442935
 20
950.3074163529491
 30
0.0
 11
2656.716960442935
 21
720.3074163529489
 31
0.0
  0
LINE
  5
2A6
330
1F
100
AcDbEntity
  8
STR
100
AcDbLine
 10
2681.716960442932
 20
950.3074163529493
 30
0.0
 11
2681.716960442936
 21
720.3074163529491
 31
0.0
  0
LINE
  5
2A9
330
1F
100
AcDbEntity
  8
STR
100
AcDbLine
 10
2501.472681493461
 20
1167.714790660698
 30
0.0
 11
2501.472681493461
 21
1000.307416352949
 31
0.0
  0
LINE
  5
2AA
330
1F
100
AcDbEntity
  8
STR
100
AcDbLine
 10
2501.47268149346
 20
1167.714790660698
 30
0.0
 11
2477.716960442934
 21
1167.714790660698
 31
0.0
  0
LINE
  5
2AB
330
1F
100
AcDbEntity
  8
STR
100
AcDbLine
 10
2196.716960442935
 20
1167.714790660698
 30
0.0
 11
2196.716960442935
 21
1000.307416352949
 31
0.0
  0
LINE
  5
2AD
330
1F
100
AcDbEntity
  8
STR
100
AcDbLine
 10
2148.59185880577
 20
1000.307416352949
 30
0.0
 11
2148.591858805767
 21
975.3074163529493
 31
0.0
  0
LINE
  5
2B4
330
1F
100
AcDbEntity
  8
STR
100
AcDbLine
 10
2638.716960442934
 20
975.3074163529493
 30
0.0
 11
2638.716960442934
 21
845.3074163529494
 31
0.0
  0
LINE
  5
2B5
330
1F
100
AcDbEntity
  8
STR
100
AcDbLine
 10
2046.716960442934
 20
975.3074163529493
 30
0.0
 11
2046.716960442934
 21
845.3074163529494
 31
0.0
  0
LINE
  5
2B6
330
1F
100
AcDbEntity
  8
STR
100
AcDbLine
 10
2071.716960442935
 20
1595.307416352949
 30
0.0
 11
2071.716960442935
 21
1055.307416352949
 31
0.0
  0
LINE
  5
2B8
330
1F
100
AcDbEntity
  8
STR
100
AcDbLine
 10
2582.116042737029
 20
1425.273667824336
 30
0.0
 11
2582.116042737029
 21
1627.926739274446
 31
0.0
  0
LINE
  5
2B9
330
1F
100
AcDbEntity
  8
STR
100
AcDbLine
 10
2622.11604273703
 20
1225.273667824336
 30
0.0
 11
2622.11604273703
 21
1425.273667824336
 31
0.0
  0
LINE
  5
2BA
330
1F
100
AcDbEntity
  8
STR
100
AcDbLine
 10
2507.716960442935
 20
1225.273667824336
 30
0.0
 11
2507.716960442935
 21
1425.273667824336
 31
0.0
  0
LINE
  5
2BB
330
1F
100
AcDbEntity
  8
STR
100
AcDbLine
 10
2781.716960442935
 20
770.3074163529495
 30
0.0
 11
2781.716960442935
 21
720.3074163529491
 31
0.0
  0
LINE
  5
2BC
330
1F
100
AcDbEntity
  8
STR
100
AcDbLine
 10
701.7169604429357
 20
910.4968823464909
 30
0.0
 11
2781.716960442935
 21
910.4968823464844
 31
0.0
  0
LINE
  5
2BD
330
1F
100
AcDbEntity
  8
STR
100
AcDbLine
 10
701.7169604429357
 20
860.4968823464966
 30
0.0
 11
2781.716960442935
 21
860.4968823464842
 31
0.0
  0
LINE
  5
2BE
330
1F
100
AcDbEntity
  8
STR
100
AcDbLine
 10
701.7169604429355
 20
770.3074163529615
 30
0.0
 11
2781.716960442935
 21
770.3074163529491
 31
0.0
  0
LINE
  5
2C0
330
1F
100
AcDbEntity
  8
STR
100
AcDbLine
 10
2638.716960442935
 20
845.3074163529494
 30
0.0
 11
2046.716960442935
 21
845.3074163529494
 31
0.0
  0
LINE
  5
2C3
330
1F
100
AcDbEntity
  8
STR
100
AcDbLine
 10
4165.286318829708
 20
745.3074163529493
 30
0.0
 11
4065.286318829708
 21
845.3074163529491
 31
0.0
  0
LINE
  5
2C4
330
1F
100
AcDbEntity
  8
STR
100
AcDbLine
 10
3505.286318829708
 20
745.3074163529492
 30
0.0
 11
3605.286318829707
 21
845.3074163529491
 31
0.0
  0
LINE
  5
2C5
330
1F
100
AcDbEntity
  8
STR
100
AcDbLine
 10
3525.286318829708
 20
845.3074163529489
 30
0.0
 11
3740.286318829708
 21
845.3074163529491
 31
0.0
  0
LINE
  5
2C6
330
1F
100
AcDbEntity
  8
STR
100
AcDbLine
 10
3505.286318829708
 20
745.3074163529492
 30
0.0
 11
4165.286318829708
 21
745.3074163529493
 31
0.0
  0
LINE
  5
2DD
330
1F
100
AcDbEntity
  8
STR
100
AcDbLine
 10
3739.210136086796
 20
1621.042706559417
 30
0.0
 11
3627.210136086799
 21
1556.379476410181
 31
0.0
  0
LINE
  5
2DE
330
1F
100
AcDbEntity
  8
STR
100
AcDbLine
 10
2706.716960442935
 20
950.307416352949
 30
0.0
 11
2706.716960442935
 21
720.3074163529491
 31
0.0
  0
LINE
  5
2DF
330
1F
100
AcDbEntity
  8
STR
100
AcDbLine
 10
2582.116042737029
 20
975.3074163529495
 30
0.0
 11
2582.116042737029
 21
1225.273667824336
 31
0.0
  0
LINE
  5
2E0
330
1F
100
AcDbEntity
  8
STR
100
AcDbLine
 10
2016.716960442935
 20
1555.307416352949
 30
0.0
 11
2046.716960442935
 21
1555.307416352949
 31
0.0
  0
LINE
  5
2E1
330
1F
100
AcDbEntity
  8
STR
100
AcDbLine
 10
2016.716960442935
 20
1555.307416352949
 30
0.0
 11
2016.716960442935
 21
1495.307416352949
 31
0.0
  0
LINE
  5
2E2
330
1F
100
AcDbEntity
  8
STR
100
AcDbLine
 10
1966.716960442934
 20
1155.307416352949
 30
0.0
 11
1966.716960442934
 21
1125.307416352948
 31
0.0
  0
LINE
  5
2E3
330
1F
100
AcDbEntity
  8
STR
100
AcDbLine
 10
2016.716960442934
 20
1155.307416352948
 30
0.0
 11
2016.716960442933
 21
1095.307416352949
 31
0.0
  0
LINE
  5
2E4
330
1F
100
AcDbEntity
  8
STR
100
AcDbLine
 10
1966.716960442934
 20
1445.273667824336
 30
0.0
 11
1966.716960442935
 21
1205.273667824336
 31
0.0
  0
LINE
  5
2E5
330
1F
100
AcDbEntity
  8
STR
100
AcDbLine
 10
1966.716960442934
 20
1205.273667824336
 30
0.0
 11
2016.716960442934
 21
1205.273667824336
 31
0.0
  0
LINE
  5
2E6
330
1F
100
AcDbEntity
  8
STR
100
AcDbLine
 10
1966.716960442934
 20
1445.273667824336
 30
0.0
 11
2016.716960442935
 21
1445.273667824336
 31
0.0
  0
LINE
  5
2E7
330
1F
100
AcDbEntity
  8
STR
100
AcDbLine
 10
2016.716960442935
 20
1095.307416352949
 30
0.0
 11
2046.716960442935
 21
1095.307416352949
 31
0.0
  0
LINE
  5
2E8
330
1F
100
AcDbEntity
  8
STR
100
AcDbLine
 10
1906.716960442935
 20
1500.307416352949
 30
0.0
 11
1906.716960442935
 21
1150.307416352948
 31
0.0
  0
LINE
  5
2E9
330
1F
100
AcDbEntity
  8
STR
100
AcDbLine
 10
1936.716960442934
 20
1500.307416352949
 30
0.0
 11
1936.716960442934
 21
1150.307416352948
 31
0.0
  0
LINE
  5
2EA
330
1F
100
AcDbEntity
  8
STR
100
AcDbLine
 10
1966.716960442935
 20
1525.307416352949
 30
0.0
 11
1966.716960442935
 21
1495.307416352949
 31
0.0
  0
LINE
  5
2EB
330
1F
100
AcDbEntity
  8
STR
100
AcDbLine
 10
2016.716960442934
 20
1445.273667824336
 30
0.0
 11
2016.716960442934
 21
1205.273667824336
 31
0.0
  0
LINE
  5
2EC
330
1F
100
AcDbEntity
  8
STR
100
AcDbLine
 10
2251.716960442935
 20
1265.273667824336
 30
0.0
 11
2447.716960442935
 21
1265.273667824336
 31
0.0
  0
LINE
  5
2ED
330
1F
100
AcDbEntity
  8
STR
100
AcDbLine
 10
2251.716960442935
 20
1385.273667824336
 30
0.0
 11
2447.716960442935
 21
1385.273667824336
 31
0.0
  0
LINE
  5
2EE
330
1F
100
AcDbEntity
  8
STR
100
AcDbLine
 10
2447.716960442936
 20
1042.688093431451
 30
0.0
 11
2447.716960442935
 21
1627.926739274446
 31
0.0
  0
LINE
  5
2EF
330
1F
100
AcDbEntity
  8
STR
100
AcDbLine
 10
2363.716960442935
 20
1042.688093431452
 30
0.0
 11
2363.716960442935
 21
1265.273667824336
 31
0.0
  0
LINE
  5
2F0
330
1F
100
AcDbEntity
  8
STR
100
AcDbLine
 10
2333.716960442936
 20
1042.688093431452
 30
0.0
 11
2333.716960442936
 21
1265.273667824336
 31
0.0
  0
LINE
  5
2F1
330
1F
100
AcDbEntity
  8
STR
100
AcDbLine
 10
2251.716960442937
 20
1042.688093431451
 30
0.0
 11
2251.716960442935
 21
1627.926739274446
 31
0.0
  0
LINE
  5
2F2
330
1F
100
AcDbEntity
  8
STR
100
AcDbLine
 10
2477.716960442935
 20
1000.307416352949
 30
0.0
 11
2477.716960442934
 21
1627.926739274446
 31
0.0
  0
LINE
  5
2F3
330
1F
100
AcDbEntity
  8
STR
100
AcDbLine
 10
2221.716960442936
 20
1000.307416352949
 30
0.0
 11
2221.716960442936
 21
1627.926739274446
 31
0.0
  0
LINE
  5
2F4
330
1F
100
AcDbEntity
  8
STR
100
AcDbLine
 10
2121.716960442935
 20
1095.307416352949
 30
0.0
 11
2171.716960442935
 21
1095.307416352949
 31
0.0
  0
LINE
  5
2F5
330
1F
100
AcDbEntity
  8
STR
100
AcDbLine
 10
2121.716960442935
 20
1555.307416352949
 30
0.0
 11
2171.716960442935
 21
1555.307416352949
 31
0.0
  0
LINE
  5
2F6
330
1F
100
AcDbEntity
  8
STR
100
AcDbLine
 10
2046.716960442935
 20
1055.307416352949
 30
0.0
 11
2121.716960442935
 21
1055.307416352949
 31
0.0
  0
LINE
  5
2F7
330
1F
100
AcDbEntity
  8
STR
100
AcDbLine
 10
2046.716960442935
 20
1595.307416352949
 30
0.0
 11
2121.716960442935
 21
1595.307416352949
 31
0.0
  0
LINE
  5
2F8
330
1F
100
AcDbEntity
  8
STR
100
AcDbLine
 10
2221.716960442936
 20
1600.307416352948
 30
0.0
 11
2221.716960442936
 21
1150.30741635295
 31
0.0
  0
LINE
  5
2F9
330
1F
100
AcDbEntity
  8
STR
100
AcDbLine
 10
2171.716960442936
 20
1555.307416352949
 30
0.0
 11
2171.716960442935
 21
1095.307416352949
 31
0.0
  0
LINE
  5
2FA
330
1F
100
AcDbEntity
  8
STR
100
AcDbLine
 10
2121.716960442935
 20
1595.307416352949
 30
0.0
 11
2121.716960442935
 21
1055.307416352949
 31
0.0
  0
LINE
  5
2FB
330
1F
100
AcDbEntity
  8
STR
100
AcDbLine
 10
2046.716960442935
 20
1595.307416352949
 30
0.0
 11
2046.716960442935
 21
1055.307416352949
 31
0.0
  0
LINE
  5
2FC
330
1F
100
AcDbEntity
  8
STR
100
AcDbLine
 10
701.7169604429357
 20
950.3074163529493
 30
0.0
 11
2706.716960442935
 21
950.3074163529493
 31
0.0
  0
LINE
  5
2FF
330
1F
100
AcDbEntity
  8
STR
100
AcDbLine
 10
3723.286318829708
 20
1389.970646502187
 30
0.0
 11
3627.210136086799
 21
1556.379476410181
 31
0.0
  0
LINE
  5
300
330
1F
100
AcDbEntity
  8
STR
100
AcDbLine
 10
3835.286318829707
 20
1454.633876651425
 30
0.0
 11
3739.210136086797
 21
1621.042706559418
 31
0.0
  0
LINE
  5
301
330
1F
100
AcDbEntity
  8
STR
100
AcDbLine
 10
3723.286318829708
 20
1389.970646502187
 30
0.0
 11
3723.286318829708
 21
1260.64418620371
 31
0.0
  0
LINE
  5
302
330
1F
100
AcDbEntity
  8
STR
100
AcDbLine
 10
3835.286318829707
 20
1454.633876651425
 30
0.0
 11
3723.286318829708
 21
1389.970646502187
 31
0.0
  0
LINE
  5
303
330
1F
100
AcDbEntity
  8
STR
100
AcDbLine
 10
3947.286318829707
 20
1389.970646502186
 30
0.0
 11
3835.286318829707
 21
1454.633876651425
 31
0.0
  0
LINE
  5
304
330
1F
100
AcDbEntity
  8
STR
100
AcDbLine
 10
3947.286318829707
 20
1260.64418620371
 30
0.0
 11
3947.286318829707
 21
1389.970646502186
 31
0.0
  0
LINE
  5
305
330
1F
100
AcDbEntity
  8
STR
100
AcDbLine
 10
3835.286318829707
 20
1195.980956054473
 30
0.0
 11
3947.286318829707
 21
1260.64418620371
 31
0.0
  0
LINE
  5
306
330
1F
100
AcDbEntity
  8
STR
100
AcDbLine
 10
3723.286318829708
 20
1260.64418620371
 30
0.0
 11
3835.286318829707
 21
1195.980956054473
 31
0.0
  0
CIRCLE
  5
307
330
1F
100
AcDbEntity
  8
STR
100
AcDbCircle
 10
3835.286318829707
 20
1325.307416352949
 30
0.0
 40
112.0
  0
CIRCLE
  5
308
330
1F
100
AcDbEntity
  8
STR
100
AcDbCircle
 10
3835.286318829707
 20
1325.307416352949
 30
0.0
 40
80.0
  0
LINE
  5
30A
330
1F
100
AcDbEntity
  8
STR
100
AcDbLine
 10
3460.286318829708
 20
1260.64418620371
 30
0.0
 11
3460.286318829708
 21
1389.970646502187
 31
0.0
  0
LINE
  5
30D
330
1F
100
AcDbEntity
  8
BMK
  6
CENTER
100
AcDbLine
 10
3835.286318829707
 20
647.1550636442789
 30
0.0
 11
3835.286318829707
 21
2006.03848398853
 31
0.0
  0
LINE
  5
30E
330
1F
100
AcDbEntity
  8
STR
100
AcDbLine
 10
3525.286318829708
 20
845.3074163529491
 30
0.0
 11
3525.286318829708
 21
975.3074163529493
 31
0.0
  0
LINE
  5
30F
330
1F
100
AcDbEntity
  8
STR
100
AcDbLine
 10
3505.286318829708
 20
720.3074163529491
 30
0.0
 11
4165.286318829708
 21
720.3074163529495
 31
0.0
  0
LINE
  5
310
330
1F
100
AcDbEntity
  8
STR
100
AcDbLine
 10
2781.716960442935
 20
910.4968823464846
 30
0.0
 11
2781.716960442935
 21
860.4968823464842
 31
0.0
  0
LINE
  5
311
330
1F
100
AcDbEntity
  8
STR
100
AcDbLine
 10
701.7169604429356
 20
958.3458921258831
 30
0.0
 11
701.7169604429355
 21
720.3074163529491
 31
0.0
  0
LINE
  5
312
330
1F
100
AcDbEntity
  8
STR
100
AcDbLine
 10
701.7169604429355
 20
720.3074163529491
 30
0.0
 11
2781.716960442935
 21
720.3074163529491
 31
0.0
  0
LINE
  5
4DC
330
1F
100
AcDbEntity
  8
STR
100
AcDbLine
 10
2148.59185880577
 20
1000.307416352949
 30
0.0
 11
2613.716960442934
 21
1000.307416352949
 31
0.0
  0
LINE
  5
4EA
330
1F
100
AcDbEntity
  8
STR
100
AcDbLine
 10
2404.716960442934
 20
1715.307416352951
 30
0.0
 11
2404.716960442934
 21
1627.926739274446
 31
0.0
  0
LINE
  5
4EB
330
1F
100
AcDbEntity
  8
STR
100
AcDbLine
 10
2294.716960442934
 20
1715.307416352951
 30
0.0
 11
2294.716960442934
 21
1627.926739274446
 31
0.0
  0
LINE
  5
4ED
330
1F
100
AcDbEntity
  8
STR
100
AcDbLine
 10
2244.716960442935
 20
1925.307416352949
 30
0.0
 11
2454.716960442936
 21
1925.30741635295
 31
0.0
  0
LINE
  5
4EE
330
1F
100
AcDbEntity
  8
STR
100
AcDbLine
 10
2454.716960442935
 20
1925.307416352949
 30
0.0
 11
2454.716960442934
 21
1715.307416352951
 31
0.0
  0
LINE
  5
4EF
330
1F
100
AcDbEntity
  8
STR
100
AcDbLine
 10
2244.716960442935
 20
1925.307416352949
 30
0.0
 11
2244.716960442936
 21
1715.307416352951
 31
0.0
  0
LINE
  5
4F3
330
1F
100
AcDbEntity
  8
STR
100
AcDbLine
 10
2582.116042737029
 20
1042.688093431451
 30
0.0
 11
2221.716960442936
 21
1042.688093431451
 31
0.0
  0
LINE
  5
4F5
330
1F
100
AcDbEntity
  8
STR
100
AcDbLine
 10
2477.716960442935
 20
1022.688093431451
 30
0.0
 11
2221.716960442936
 21
1022.688093431452
 31
0.0
  0
LINE
  5
4F6
330
1F
100
AcDbEntity
  8
STR
100
AcDbLine
 10
2613.716960442934
 20
1000.307416352949
 30
0.0
 11
2613.716960442934
 21
1068.975125814171
 31
0.0
  0
LINE
  5
4F7
330
1F
100
AcDbEntity
  8
STR
100
AcDbLine
 10
2582.116042737029
 20
1627.926739274446
 30
0.0
 11
2221.716960442936
 21
1627.926739274446
 31
0.0
  0
LINE
  5
4F9
330
1F
100
AcDbEntity
  8
STR
100
AcDbLine
 10
2477.716960442934
 20
1555.356050329298
 30
0.0
 11
2221.716960442936
 21
1555.356050329298
 31
0.0
  0
LINE
  5
51E
330
1F
100
AcDbEntity
  8
BMK
100
AcDbLine
 10
2604.450005754141
 20
1077.78678587999
 30
0.0
 11
2604.450005754141
 21
768.2459903352301
 31
0.0
  0
LINE
  5
51F
330
1F
100
AcDbEntity
  8
BMK
100
AcDbLine
 10
2170.295083899306
 20
1029.4210319964
 30
0.0
 11
2170.295083899306
 21
945.5870689110316
 31
0.0
  0
LINE
  5
520
330
1F
100
AcDbEntity
  8
BMK
100
AcDbLine
 10
2529.138836986566
 20
1029.4210319964
 30
0.0
 11
2529.138836986566
 21
945.5870689110316
 31
0.0
  0
LINE
  5
521
330
1F
100
AcDbEntity
  8
STR
100
AcDbLine
 10
2348.716960442936
 20
975.3074163529495
 30
0.0
 11
2348.716960442936
 21
845.3074163529494
 31
0.0
  0
LINE
  5
524
330
1F
100
AcDbEntity
  8
STR
100
AcDbLine
 10
2244.716960442935
 20
1715.307416352951
 30
0.0
 11
2454.716960442934
 21
1715.307416352951
 31
0.0
  0
LINE
  5
555
330
1F
100
AcDbEntity
  8
STR
100
AcDbLine
 10
3947.286318829707
 20
1389.970646502187
 30
0.0
 11
4043.459414669036
 21
1556.547334817095
 31
0.0
  0
LINE
  5
556
330
1F
100
AcDbEntity
  8
STR
100
AcDbLine
 10
3931.459414669033
 20
1621.210564966333
 30
0.0
 11
4043.459414669036
 21
1556.547334817096
 31
0.0
  0
LINE
  5
557
330
1F
100
AcDbEntity
  8
STR
100
AcDbLine
 10
3835.286318829707
 20
1454.633876651425
 30
0.0
 11
3931.459414669035
 21
1621.210564966333
 31
0.0
  0
LINE
  5
55E
330
1F
100
AcDbEntity
  8
BMK
100
AcDbLine
 10
3790.286318829707
 20
1403.249702693549
 30
0.0
 11
3670.267173382194
 21
1611.128960489641
 31
0.0
  0
LINE
  5
565
330
1F
100
AcDbEntity
  8
STR
100
AcDbLine
 10
3515.286318829708
 20
1022.688093431451
 30
0.0
 11
4155.286318829706
 21
1022.688093431451
 31
0.0
  0
LINE
  5
569
330
1F
100
AcDbEntity
  8
STR
100
AcDbLine
 10
3460.286318829707
 20
1389.970646502187
 30
0.0
 11
3723.286318829708
 21
1389.970646502187
 31
0.0
  0
LINE
  5
56B
330
1F
100
AcDbEntity
  8
STR
100
AcDbLine
 10
3460.286318829708
 20
1260.64418620371
 30
0.0
 11
3723.286318829707
 21
1260.64418620371
 31
0.0
  0
LINE
  5
583
330
1F
100
AcDbEntity
  8
STR
  6
HIDDEN
100
AcDbLine
 10
3515.286318829708
 20
1000.307416352949
 30
0.0
 11
4155.286318829708
 21
1000.307416352949
 31
0.0
  0
LINE
  5
588
330
1F
100
AcDbEntity
  8
STR
100
AcDbLine
 10
3515.286318829708
 20
950.3074163529493
 30
0.0
 11
3515.286318829708
 21
1141.849880271136
 31
0.0
  0
LINE
  5
58B
330
1F
100
AcDbEntity
  8
STR
100
AcDbLine
 10
3515.32721865752
 20
1141.849880271136
 30
0.0
 11
3635.367972265256
 21
1021.686385509571
 31
0.0
  0
LINE
  5
58C
330
1F
100
AcDbEntity
  8
STR
100
AcDbLine
 10
3515.286318829708
 20
1141.849880271136
 30
0.0
 11
3540.32721865752
 21
1141.849880271137
 31
0.0
  0
LINE
  5
58E
330
1F
100
AcDbEntity
  8
STR
100
AcDbLine
 10
3540.32721865752
 20
1141.849880271137
 30
0.0
 11
3660.367972265256
 21
1021.686385509571
 31
0.0
  0
LINE
  5
5A2
330
1F
100
AcDbEntity
  8
BMK
100
AcDbLine
 10
3988.871179839895
 20
1022.688093431451
 30
0.0
 11
3988.871179839895
 21
745.3074163529495
 31
0.0
  0
LINE
  5
5A3
330
1F
100
AcDbEntity
  8
BMK
100
AcDbLine
 10
3681.701457819516
 20
1022.688093431451
 30
0.0
 11
3681.701457819516
 21
745.3074163529495
 31
0.0
  0
LINE
  5
5A9
330
1F
100
AcDbEntity
  8
STR
100
AcDbLine
 10
3947.286318829707
 20
1389.970646502186
 30
0.0
 11
4210.286318829706
 21
1389.970646502186
 31
0.0
  0
LINE
  5
5AA
330
1F
100
AcDbEntity
  8
STR
100
AcDbLine
 10
3947.286318829707
 20
1260.64418620371
 30
0.0
 11
4210.286318829706
 21
1260.64418620371
 31
0.0
  0
LINE
  5
5AB
330
1F
100
AcDbEntity
  8
STR
100
AcDbLine
 10
3630.286318829709
 20
1715.307416352951
 30
0.0
 11
4040.286318829706
 21
1715.307416352952
 31
0.0
  0
LINE
  5
5AC
330
1F
100
AcDbEntity
  8
STR
100
AcDbLine
 10
3630.286318829708
 20
1925.307416352949
 30
0.0
 11
3630.286318829709
 21
1715.307416352951
 31
0.0
  0
LINE
  5
5AD
330
1F
100
AcDbEntity
  8
STR
100
AcDbLine
 10
4040.286318829708
 20
1925.307416352949
 30
0.0
 11
4040.286318829706
 21
1715.307416352951
 31
0.0
  0
LINE
  5
5AE
330
1F
100
AcDbEntity
  8
STR
100
AcDbLine
 10
3630.286318829708
 20
1925.307416352949
 30
0.0
 11
4040.286318829707
 21
1925.30741635295
 31
0.0
  0
LINE
  5
5AF
330
1F
100
AcDbEntity
  8
STR
100
AcDbLine
 10
3740.286318829706
 20
1715.307416352951
 30
0.0
 11
3740.286318829706
 21
1629.030282383534
 31
0.0
  0
LINE
  5
5B0
330
1F
100
AcDbEntity
  8
STR
100
AcDbLine
 10
3930.286318829706
 20
1715.307416352951
 30
0.0
 11
3930.286318829706
 21
1629.030282383534
 31
0.0
  0
LINE
  5
5C0
330
1F
100
AcDbEntity
  8
STR
100
AcDbLine
 10
4210.286318829707
 20
1262.807416352949
 30
0.0
 11
4235.286318829706
 21
1262.807416352949
 31
0.0
  0
LINE
  5
5C1
330
1F
100
AcDbEntity
  8
STR
100
AcDbLine
 10
4235.286318829706
 20
1262.807416352949
 30
0.0
 11
4235.286318829707
 21
1350.307416352949
 31
0.0
  0
LINE
  5
5C2
330
1F
100
AcDbEntity
  8
STR
100
AcDbLine
 10
4385.286318829707
 20
1350.307416352949
 30
0.0
 11
4385.286318829707
 21
1375.307416352949
 31
0.0
  0
LINE
  5
5C3
330
1F
100
AcDbEntity
  8
STR
100
AcDbLine
 10
4235.286318829707
 20
1350.307416352949
 30
0.0
 11
4385.286318829707
 21
1350.307416352949
 31
0.0
  0
LINE
  5
5C4
330
1F
100
AcDbEntity
  8
STR
100
AcDbLine
 10
4335.286318829707
 20
1535.307416352949
 30
0.0
 11
4335.286318829707
 21
1655.307416352949
 31
0.0
  0
LINE
  5
5C5
330
1F
100
AcDbEntity
  8
STR
100
AcDbLine
 10
4260.286318829709
 20
1535.307416352949
 30
0.0
 11
4260.286318829708
 21
1655.307416352949
 31
0.0
  0
LINE
  5
5C6
330
1F
100
AcDbEntity
  8
STR
100
AcDbLine
 10
4335.286318829707
 20
1655.307416352949
 30
0.0
 11
4260.286318829709
 21
1655.307416352949
 31
0.0
  0
LINE
  5
5C7
330
1F
100
AcDbEntity
  8
STR
100
AcDbLine
 10
4360.286318829706
 20
1535.307416352949
 30
0.0
 11
4235.286318829707
 21
1535.307416352949
 31
0.0
  0
LINE
  5
5C8
330
1F
100
AcDbEntity
  8
STR
100
AcDbLine
 10
4360.286318829706
 20
1375.307416352949
 30
0.0
 11
4360.286318829706
 21
1535.307416352949
 31
0.0
  0
LINE
  5
5C9
330
1F
100
AcDbEntity
  8
STR
100
AcDbLine
 10
4235.286318829708
 20
1375.307416352949
 30
0.0
 11
4235.286318829707
 21
1535.307416352949
 31
0.0
  0
LINE
  5
5CA
330
1F
100
AcDbEntity
  8
STR
100
AcDbLine
 10
4385.286318829707
 20
1375.307416352949
 30
0.0
 11
4210.286318829708
 21
1375.307416352949
 31
0.0
  0
LINE
  5
832
330
1F
100
AcDbEntity
  8
STR
100
AcDbLine
 10
2582.116042737029
 20
1068.975125814171
 30
0.0
 11
2613.716960442934
 21
1068.975125814171
 31
0.0
  0
LINE
  5
899
330
1F
100
AcDbEntity
  8
BMK
100
AcDbLine
 10
328.3178268342417
 20
1325.307416352949
 30
0.0
 11
4632.402915156028
 21
1325.307416352949
 31
0.0
  0
LINE
  5
907
330
1F
100
AcDbEntity
  8
STR
100
AcDbLine
 10
3505.286318829708
 20
720.3074163529491
 30
0.0
 11
3505.286318829708
 21
745.3074163529491
 31
0.0
  0
LINE
  5
908
330
1F
100
AcDbEntity
  8
STR
100
AcDbLine
 10
4165.286318829708
 20
720.3074163529491
 30
0.0
 11
4165.286318829708
 21
745.3074163529491
 31
0.0
  0
LINE
  5
90A
330
1F
100
AcDbEntity
  8
STR
100
AcDbLine
 10
3931.459414669035
 20
1029.404267739564
 30
0.0
 11
4043.459414669034
 21
1094.067497888801
 31
0.0
  0
LINE
  5
90B
330
1F
100
AcDbEntity
  8
STR
100
AcDbLine
 10
3947.286318829707
 20
1260.644186203709
 30
0.0
 11
4043.459414669035
 21
1094.0674978888
 31
0.0
  0
LINE
  5
90C
330
1F
100
AcDbEntity
  8
STR
100
AcDbLine
 10
3835.286318829707
 20
1195.980956054472
 30
0.0
 11
3931.459414669035
 21
1029.404267739564
 31
0.0
  0
LINE
  5
90D
330
1F
100
AcDbEntity
  8
STR
100
AcDbLine
 10
3835.286318829707
 20
1195.980956054472
 30
0.0
 11
3739.210136086796
 21
1029.57212614648
 31
0.0
  0
LINE
  5
90E
330
1F
100
AcDbEntity
  8
STR
100
AcDbLine
 10
3739.210136086796
 20
1029.572126146479
 30
0.0
 11
3627.210136086798
 21
1094.235356295717
 31
0.0
  0
LINE
  5
90F
330
1F
100
AcDbEntity
  8
STR
100
AcDbLine
 10
3723.286318829707
 20
1260.64418620371
 30
0.0
 11
3627.210136086798
 21
1094.235356295717
 31
0.0
  0
LINE
  5
916
330
1F
100
AcDbEntity
  8
STR
  6
HIDDEN
100
AcDbLine
 10
4045.286318829709
 20
1446.550972882769
 30
0.0
 11
3835.286318829708
 21
1567.794529412591
 31
0.0
  0
LINE
  5
917
330
1F
100
AcDbEntity
  8
STR
  6
HIDDEN
100
AcDbLine
 10
3835.286318829707
 20
1567.794529412591
 30
0.0
 11
3625.286318829709
 21
1446.550972882771
 31
0.0
  0
LINE
  5
918
330
1F
100
AcDbEntity
  8
STR
  6
HIDDEN
100
AcDbLine
 10
3625.286318829709
 20
1446.550972882771
 30
0.0
 11
3625.286318829707
 21
1204.063859823128
 31
0.0
  0
LINE
  5
919
330
1F
100
AcDbEntity
  8
STR
  6
HIDDEN
100
AcDbLine
 10
3625.286318829707
 20
1204.063859823127
 30
0.0
 11
3835.286318829707
 21
1082.820303293306
 31
0.0
  0
LINE
  5
91A
330
1F
100
AcDbEntity
  8
STR
  6
HIDDEN
100
AcDbLine
 10
3835.286318829707
 20
1082.820303293306
 30
0.0
 11
4045.286318829707
 21
1204.063859823127
 31
0.0
  0
LINE
  5
91B
330
1F
100
AcDbEntity
  8
STR
  6
HIDDEN
100
AcDbLine
 10
4045.286318829707
 20
1204.063859823127
 30
0.0
 11
4045.286318829709
 21
1446.550972882769
 31
0.0
  0
LINE
  5
936
330
1F
100
AcDbEntity
  8
BMK
100
AcDbLine
 10
3880.286318829708
 20
1403.249702693549
 30
0.0
 11
4000.305464277221
 21
1611.128960489641
 31
0.0
  0
LINE
  5
937
330
1F
100
AcDbEntity
  8
BMK
100
AcDbLine
 10
3880.286318829708
 20
1247.365130012348
 30
0.0
 11
4000.305464277219
 21
1039.485872216255
 31
0.0
  0
LINE
  5
938
330
1F
100
AcDbEntity
  8
BMK
100
AcDbLine
 10
3790.286318829707
 20
1247.365130012349
 30
0.0
 11
3670.267173382192
 21
1039.485872216258
 31
0.0
  0
LINE
  5
942
330
1F
100
AcDbEntity
  8
STR
100
AcDbLine
 10
3505.286318829708
 20
900.3074163529506
 30
0.0
 11
3505.286318829708
 21
975.3074163529499
 31
0.0
  0
LINE
  5
944
330
1F
100
AcDbEntity
  8
STR
100
AcDbLine
 10
3460.286318829708
 20
1209.390780098947
 30
0.0
 11
3460.286318829708
 21
1441.224052606949
 31
0.0
  0
LINE
  5
94B
330
1F
100
AcDbEntity
  8
STR
100
AcDbLine
 10
3648.092548606292
 20
1629.030282383534
 30
0.0
 11
4010.64079729151
 21
1629.030282383534
 31
0.0
  0
LINE
  5
953
330
1F
100
AcDbEntity
  8
STR
100
AcDbLine
 10
4165.286318829708
 20
900.3074163529506
 30
0.0
 11
4165.286318829708
 21
975.3074163529499
 31
0.0
  0
LINE
  5
954
330
1F
100
AcDbEntity
  8
STR
100
AcDbLine
 10
4145.286318829707
 20
845.3074163529491
 30
0.0
 11
4145.286318829707
 21
975.3074163529493
 31
0.0
  0
LINE
  5
955
330
1F
100
AcDbEntity
  8
STR
100
AcDbLine
 10
4007.944939559982
 20
950.307416352949
 30
0.0
 11
4007.944939559982
 21
900.307416352952
 31
0.0
  0
LINE
  5
956
330
1F
100
AcDbEntity
  8
STR
100
AcDbLine
 10
3977.944939559983
 20
950.307416352949
 30
0.0
 11
3977.944939559983
 21
900.3074163529525
 31
0.0
  0
LINE
  5
957
330
1F
100
AcDbEntity
  8
STR
100
AcDbLine
 10
4065.286318829708
 20
770.3074163529492
 30
0.0
 11
4065.286318829708
 21
900.3074163529493
 31
0.0
  0
LINE
  5
958
330
1F
100
AcDbEntity
  8
STR
100
AcDbLine
 10
4040.286318829708
 20
770.3074163529492
 30
0.0
 11
4040.286318829708
 21
900.3074163529493
 31
0.0
  0
LINE
  5
959
330
1F
100
AcDbEntity
  8
STR
100
AcDbLine
 10
4065.286318829708
 20
770.3074163529492
 30
0.0
 11
4040.286318829707
 21
770.3074163529492
 31
0.0
  0
LINE
  5
95A
330
1F
100
AcDbEntity
  8
STR
100
AcDbLine
 10
4007.944939559982
 20
900.307416352952
 30
0.0
 11
4165.286318829708
 21
900.3074163529394
 31
0.0
  0
LINE
  5
95C
330
1F
100
AcDbEntity
  8
STR
100
AcDbLine
 10
3527.82721865752
 20
1141.849880271136
 30
0.0
 11
3460.286318829708
 21
1209.390780098948
 31
0.0
  0
LINE
  5
95D
330
1F
100
AcDbEntity
  8
STR
100
AcDbLine
 10
3648.092548606292
 20
1629.030282383534
 30
0.0
 11
3460.286318829708
 21
1441.224052606949
 31
0.0
  0
LINE
  5
95E
330
1F
100
AcDbEntity
  8
STR
100
AcDbLine
 10
4142.745419001896
 20
1141.849880271136
 30
0.0
 11
4210.286318829707
 21
1209.390780098948
 31
0.0
  0
LINE
  5
95F
330
1F
100
AcDbEntity
  8
STR
100
AcDbLine
 10
4130.245419001896
 20
1141.849880271137
 30
0.0
 11
4010.204665394159
 21
1021.686385509571
 31
0.0
  0
LINE
  5
960
330
1F
100
AcDbEntity
  8
STR
100
AcDbLine
 10
4155.286318829706
 20
1141.849880271136
 30
0.0
 11
4130.245419001896
 21
1141.849880271137
 31
0.0
  0
LINE
  5
961
330
1F
100
AcDbEntity
  8
STR
100
AcDbLine
 10
4155.245419001896
 20
1141.849880271136
 30
0.0
 11
4035.204665394159
 21
1021.686385509571
 31
0.0
  0
LINE
  5
962
330
1F
100
AcDbEntity
  8
STR
100
AcDbLine
 10
4155.286318829706
 20
950.3074163529493
 30
0.0
 11
4155.286318829706
 21
1141.849880271136
 31
0.0
  0
LINE
  5
963
330
1F
100
AcDbEntity
  8
STR
100
AcDbLine
 10
4022.480089053122
 20
1629.030282383534
 30
0.0
 11
4210.286318829707
 21
1441.224052606949
 31
0.0
  0
LINE
  5
964
330
1F
100
AcDbEntity
  8
STR
100
AcDbLine
 10
4210.286318829707
 20
1209.390780098947
 30
0.0
 11
4210.286318829707
 21
1441.224052606949
 31
0.0
  0
LINE
  5
9AA
330
1F
100
AcDbEntity
  8
STR
100
AcDbLine
 10
2477.716960442934
 20
1095.2587823766
 30
0.0
 11
2221.716960442936
 21
1095.2587823766
 31
0.0
  0
LINE
  5
B90
330
1F
100
AcDbEntity
  8
STR
100
AcDbLine
 10
701.7169604429355
 20
679.5779131856816
 30
0.0
 11
701.7169604429355
 21
478.1331023086279
 31
0.0
  0
LINE
  5
B91
330
1F
100
AcDbEntity
  8
STR
100
AcDbLine
 10
2781.716960442935
 20
694.6824163529493
 30
0.0
 11
2781.716960442935
 21
478.1331023086279
 31
0.0
  0
LINE
  5
B92
330
1F
100
AcDbEntity
  8
STR
100
AcDbLine
 10
751.7169604429355
 20
479.3831023086279
 30
0.0
 11
2731.716960442935
 21
479.3831023086279
 31
0.0
  0
LINE
  5
B96
330
1F
100
AcDbEntity
  8
STR
100
AcDbLine
 10
2071.716960442935
 20
2057.044985447013
 30
0.0
 11
2071.716960442935
 21
2322.354201841646
 31
0.0
  0
LINE
  5
B97
330
1F
100
AcDbEntity
  8
STR
100
AcDbLine
 10
2781.716960442935
 20
2057.669985447013
 30
0.0
 11
2781.716960442935
 21
2322.354201841646
 31
0.0
  0
LINE
  5
B98
330
1F
100
AcDbEntity
  8
STR
100
AcDbLine
 10
2121.716960442935
 20
2321.104201841646
 30
0.0
 11
2731.716960442935
 21
2321.104201841646
 31
0.0
  0
LINE
  5
B9C
330
1F
100
AcDbEntity
  8
STR
100
AcDbLine
 10
1244.785169919239
 20
1525.307416352949
 30
0.0
 11
1244.160169919239
 21
1525.307416352949
 31
0.0
  0
LINE
  5
B9D
330
1F
100
AcDbEntity
  8
STR
100
AcDbLine
 10
1244.785169919239
 20
1125.307416352949
 30
0.0
 11
1244.160169919239
 21
1125.307416352949
 31
0.0
  0
LINE
  5
B9E
330
1F
100
AcDbEntity
  8
STR
100
AcDbLine
 10
1245.410169919239
 20
1475.307416352949
 30
0.0
 11
1245.410169919239
 21
1175.307416352949
 31
0.0
  0
MTEXT
  5
BA1
330
1F
100
AcDbEntity
  8
STR
100
AcDbMText
 10
1185.410169919239
 20
1325.307416352949
 30
0.0
 40
60.0
 41
0.0
 71
     5
 72
     1
  1
　
 11
0.0000000000000001
 21
1.0
 31
0.0
1001
ACAD
1000
MTEXTBEGIN
1070
    73
1070
     1
1070
    44
1040
1.0
1070
    74
1070
     0
1000
MTEXTEND
  0
LINE
  5
BA2
330
1F
100
AcDbEntity
  8
STR
100
AcDbLine
 10
669.3960098661057
 20
950.3074163529493
 30
0.0
 11
615.0159260917762
 21
950.3074163529493
 31
0.0
  0
LINE
  5
BA3
330
1F
100
AcDbEntity
  8
STR
100
AcDbLine
 10
801.3233671967519
 20
975.3074163529488
 30
0.0
 11
615.0159260917762
 21
975.307416352949
 31
0.0
  0
LINE
  5
BA4
330
1F
100
AcDbEntity
  8
STR
100
AcDbLine
 10
616.2659260917762
 20
900.3074163529493
 30
0.0
 11
616.2659260917762
 21
850.3074163529493
 31
0.0
  0
LINE
  5
BA5
330
1F
100
AcDbEntity
  8
STR
100
AcDbLine
 10
616.2659260917762
 20
1025.307416352948
 30
0.0
 11
616.2659260917762
 21
1075.307416352948
 31
0.0
  0
LINE
  5
BA7
330
1F
100
AcDbEntity
  8
STR
100
AcDbLine
 10
616.2659260917762
 20
950.3074163529493
 30
0.0
 11
616.2659260917762
 21
975.307416352949
 31
0.0
  0
LINE
  5
BAA
330
1F
100
AcDbEntity
  8
STR
100
AcDbLine
 10
774.3605321972681
 20
975.3074163529495
 30
0.0
 11
773.7355321972682
 21
975.3074163529495
 31
0.0
  0
LINE
  5
BAB
330
1F
100
AcDbEntity
  8
STR
100
AcDbLine
 10
581.4688740467581
 20
1325.307416352949
 30
0.0
 11
776.2355321972683
 21
1325.307416352949
 31
0.0
  0
LINE
  5
BAC
330
1F
100
AcDbEntity
  8
STR
100
AcDbLine
 10
774.9855321972682
 20
1025.307416352949
 30
0.0
 11
774.9855321972682
 21
1275.307416352949
 31
0.0
  0
LINE
  5
BB0
330
1F
100
AcDbEntity
  8
STR
100
AcDbLine
 10
669.3960098661055
 20
720.3074163529495
 30
0.0
 11
615.0159260917761
 21
720.3074163529495
 31
0.0
  0
LINE
  5
BB1
330
1F
100
AcDbEntity
  8
STR
100
AcDbLine
 10
669.3960098661057
 20
950.3074163529493
 30
0.0
 11
615.0159260917762
 21
950.3074163529493
 31
0.0
  0
LINE
  5
BB2
330
1F
100
AcDbEntity
  8
STR
100
AcDbLine
 10
616.2659260917762
 20
770.3074163529495
 30
0.0
 11
616.2659260917762
 21
900.3074163529493
 31
0.0
  0
LINE
  5
BB6
330
1F
100
AcDbEntity
  8
STR
100
AcDbLine
 10
2221.716960442936
 20
2056.419985447013
 30
0.0
 11
2221.716960442936
 21
2159.464478992106
 31
0.0
  0
LINE
  5
BB7
330
1F
100
AcDbEntity
  8
STR
100
AcDbLine
 10
2477.716960442934
 20
2056.419985447013
 30
0.0
 11
2477.716960442934
 21
2159.464478992106
 31
0.0
  0
LINE
  5
BB8
330
1F
100
AcDbEntity
  8
STR
100
AcDbLine
 10
2271.716960442935
 20
2158.214478992106
 30
0.0
 11
2427.716960442935
 21
2158.214478992106
 31
0.0
  0
LINE
  5
BBC
330
1F
100
AcDbEntity
  8
STR
100
AcDbLine
 10
2807.966960442935
 20
1925.307416352949
 30
0.0
 11
3129.785989782408
 21
1925.307416352949
 31
0.0
  0
LINE
  5
BBD
330
1F
100
AcDbEntity
  8
STR
100
AcDbLine
 10
2807.341960442935
 20
720.3074163529493
 30
0.0
 11
3129.785989782408
 21
720.3074163529492
 31
0.0
  0
LINE
  5
BBE
330
1F
100
AcDbEntity
  8
STR
100
AcDbLine
 10
3128.535989782408
 20
1875.307416352949
 30
0.0
 11
3128.535989782408
 21
770.3074163529492
 31
0.0
  0
LINE
  5
BC2
330
1F
100
AcDbEntity
  8
STR
100
AcDbLine
 10
3505.286318829709
 20
627.8736488695405
 30
0.0
 11
3505.286318829709
 21
435.1347958447552
 31
0.0
  0
LINE
  5
BC3
330
1F
100
AcDbEntity
  8
STR
100
AcDbLine
 10
4165.286318829708
 20
627.8736488695403
 30
0.0
 11
4165.286318829708
 21
435.1347958447552
 31
0.0
  0
LINE
  5
BC4
330
1F
100
AcDbEntity
  8
STR
100
AcDbLine
 10
3555.286318829709
 20
436.3847958447552
 30
0.0
 11
4115.286318829708
 21
436.3847958447552
 31
0.0
  0
LINE
  5
BC8
330
1F
100
AcDbEntity
  8
STR
100
AcDbLine
 10
2967.938975112672
 20
720.3074163529493
 30
0.0
 11
2966.688975112671
 21
720.3074163529493
 31
0.0
  0
LINE
  5
BC9
330
1F
100
AcDbEntity
  8
STR
100
AcDbLine
 10
2967.938975112672
 20
1325.307416352949
 30
0.0
 11
2966.688975112671
 21
1325.307416352949
 31
0.0
  0
LINE
  5
BCA
330
1F
100
AcDbEntity
  8
STR
100
AcDbLine
 10
2967.938975112671
 20
770.3074163529493
 30
0.0
 11
2967.938975112672
 21
1275.307416352949
 31
0.0
  0
LINE
  5
BCE
330
1F
100
AcDbEntity
  8
STR
100
AcDbLine
 10
4235.286318829706
 20
1237.182416352949
 30
0.0
 11
4235.286318829706
 21
1123.747311168028
 31
0.0
  0
LINE
  5
BCF
330
1F
100
AcDbEntity
  8
STR
100
AcDbLine
 10
4385.286318829707
 20
1321.124795217617
 30
0.0
 11
4385.286318829707
 21
1123.747311168028
 31
0.0
  0
LINE
  5
BD0
330
1F
100
AcDbEntity
  8
STR
100
AcDbLine
 10
4185.286318829707
 20
1124.997311168028
 30
0.0
 11
4135.286318829707
 21
1124.997311168028
 31
0.0
  0
LINE
  5
BD1
330
1F
100
AcDbEntity
  8
STR
100
AcDbLine
 10
4435.286318829707
 20
1124.997311168028
 30
0.0
 11
4675.286318829707
 21
1124.997311168028
 31
0.0
  0
LINE
  5
BD2
330
1F
100
AcDbEntity
  8
STR
100
AcDbLine
 10
4235.286318829706
 20
1124.997311168028
 30
0.0
 11
4385.286318829707
 21
1124.997311168028
 31
0.0
  0
LINE
  5
BD6
330
1F
100
AcDbEntity
  8
STR
100
AcDbLine
 10
3460.286318829708
 20
2074.835033016332
 30
0.0
 11
3460.286318829708
 21
2312.055658260018
 31
0.0
  0
LINE
  5
BD7
330
1F
100
AcDbEntity
  8
STR
100
AcDbLine
 10
4210.286318829704
 20
2075.460033016332
 30
0.0
 11
4210.286318829704
 21
2312.055658260018
 31
0.0
  0
LINE
  5
BD8
330
1F
100
AcDbEntity
  8
STR
100
AcDbLine
 10
3510.286318829708
 20
2310.805658260018
 30
0.0
 11
4160.286318829705
 21
2310.805658260018
 31
0.0
  0
LINE
  5
BDC
330
1F
100
AcDbEntity
  8
STR
  6
BYBLOCK
 62
     0
100
AcDbLine
 10
1232.012710419239
 20
1475.307416352949
 30
0.0
 11
1245.410169919239
 21
1525.307416352949
 31
0.0
  0
LINE
  5
BDD
330
1F
100
AcDbEntity
  8
STR
  6
BYBLOCK
 62
     0
100
AcDbLine
 10
1245.410169919239
 20
1525.307416352949
 30
0.0
 11
1258.807629419239
 21
1475.307416352949
 31
0.0
  0
LINE
  5
BDE
330
1F
100
AcDbEntity
  8
STR
  6
BYBLOCK
 62
     0
100
AcDbLine
 10
1245.410169919239
 20
1525.307416352949
 30
0.0
 11
1245.410169919239
 21
1475.307416352949
 31
0.0
  0
LINE
  5
BDF
330
1F
100
AcDbEntity
  8
STR
  6
BYBLOCK
 62
     0
100
AcDbLine
 10
751.7169604429355
 20
465.9856428086278
 30
0.0
 11
701.7169604429355
 21
479.3831023086279
 31
0.0
  0
LINE
  5
BE0
330
1F
100
AcDbEntity
  8
STR
  6
BYBLOCK
 62
     0
100
AcDbLine
 10
701.7169604429355
 20
479.3831023086279
 30
0.0
 11
751.7169604429355
 21
492.7805618086279
 31
0.0
  0
LINE
  5
BE1
330
1F
100
AcDbEntity
  8
STR
  6
BYBLOCK
 62
     0
100
AcDbLine
 10
701.7169604429355
 20
479.3831023086279
 30
0.0
 11
751.7169604429355
 21
479.3831023086279
 31
0.0
  0
TEXT
  5
BE2
330
1F
100
AcDbEntity
  8
STR
100
AcDbText
 10
586.2659260917761
 20
950.3074163529495
 30
0.0
 40
60.0
  1
25
 50
90.0
100
AcDbText
  0
TEXT
  5
BE3
330
1F
100
AcDbEntity
  8
STR
100
AcDbText
 10
586.265926091776
 20
760.3074163529495
 30
0.0
 40
60.0
  1
230
 50
90.0
100
AcDbText
  0
LINE
  5
BE4
330
1F
100
AcDbEntity
  8
STR
  6
BYBLOCK
 62
     0
100
AcDbLine
 10
629.6633855917761
 20
770.3074163529495
 30
0.0
 11
616.2659260917761
 21
720.3074163529495
 31
0.0
  0
LINE
  5
BE5
330
1F
100
AcDbEntity
  8
STR
  6
BYBLOCK
 62
     0
100
AcDbLine
 10
616.2659260917761
 20
720.3074163529495
 30
0.0
 11
602.8684665917761
 21
770.3074163529495
 31
0.0
  0
LINE
  5
BE6
330
1F
100
AcDbEntity
  8
STR
  6
BYBLOCK
 62
     0
100
AcDbLine
 10
616.2659260917761
 20
720.3074163529495
 30
0.0
 11
616.2659260917761
 21
770.3074163529495
 31
0.0
  0
LINE
  5
BE7
330
1F
100
AcDbEntity
  8
STR
  6
BYBLOCK
 62
     0
100
AcDbLine
 10
602.8684665917762
 20
900.3074163529493
 30
0.0
 11
616.2659260917762
 21
950.3074163529493
 31
0.0
  0
LINE
  5
BE8
330
1F
100
AcDbEntity
  8
STR
  6
BYBLOCK
 62
     0
100
AcDbLine
 10
616.2659260917762
 20
950.3074163529493
 30
0.0
 11
629.6633855917762
 21
900.3074163529493
 31
0.0
  0
LINE
  5
BE9
330
1F
100
AcDbEntity
  8
STR
  6
BYBLOCK
 62
     0
100
AcDbLine
 10
616.2659260917762
 20
950.3074163529493
 30
0.0
 11
616.2659260917762
 21
900.3074163529493
 31
0.0
  0
LINE
  5
BEA
330
1F
100
AcDbEntity
  8
STR
  6
BYBLOCK
 62
     0
100
AcDbLine
 10
602.8684665917762
 20
900.3074163529493
 30
0.0
 11
616.2659260917762
 21
950.3074163529493
 31
0.0
  0
LINE
  5
BEB
330
1F
100
AcDbEntity
  8
STR
  6
BYBLOCK
 62
     0
100
AcDbLine
 10
616.2659260917762
 20
950.3074163529493
 30
0.0
 11
629.6633855917762
 21
900.3074163529493
 31
0.0
  0
LINE
  5
BEC
330
1F
100
AcDbEntity
  8
STR
  6
BYBLOCK
 62
     0
100
AcDbLine
 10
616.2659260917762
 20
950.3074163529493
 30
0.0
 11
616.2659260917762
 21
900.3074163529493
 31
0.0
  0
LINE
  5
BED
330
1F
100
AcDbEntity
  8
STR
  6
BYBLOCK
 62
     0
100
AcDbLine
 10
629.6633855917762
 20
1025.307416352948
 30
0.0
 11
616.2659260917762
 21
975.307416352949
 31
0.0
  0
LINE
  5
BEE
330
1F
100
AcDbEntity
  8
STR
  6
BYBLOCK
 62
     0
100
AcDbLine
 10
616.2659260917762
 20
975.307416352949
 30
0.0
 11
602.8684665917762
 21
1025.307416352948
 31
0.0
  0
LINE
  5
BEF
330
1F
100
AcDbEntity
  8
STR
  6
BYBLOCK
 62
     0
100
AcDbLine
 10
616.2659260917762
 20
975.307416352949
 30
0.0
 11
616.2659260917762
 21
1025.307416352948
 31
0.0
  0
LINE
  5
BF0
330
1F
100
AcDbEntity
  8
STR
  6
BYBLOCK
 62
     0
100
AcDbLine
 10
788.3829916972681
 20
1025.307416352949
 30
0.0
 11
774.9855321972682
 21
975.3074163529495
 31
0.0
  0
LINE
  5
BF1
330
1F
100
AcDbEntity
  8
STR
  6
BYBLOCK
 62
     0
100
AcDbLine
 10
774.9855321972682
 20
975.3074163529495
 30
0.0
 11
761.5880726972682
 21
1025.307416352949
 31
0.0
  0
LINE
  5
BF2
330
1F
100
AcDbEntity
  8
STR
  6
BYBLOCK
 62
     0
100
AcDbLine
 10
774.9855321972682
 20
975.3074163529495
 30
0.0
 11
774.9855321972682
 21
1025.307416352949
 31
0.0
  0
TEXT
  5
BF3
330
1F
100
AcDbEntity
  8
STR
100
AcDbText
 10
744.9855321972681
 20
1141.147526229438
 30
0.0
 40
60.0
  1
350
 50
90.0
100
AcDbText
  0
LINE
  5
BF4
330
1F
100
AcDbEntity
  8
STR
  6
BYBLOCK
 62
     0
100
AcDbLine
 10
761.5880726972683
 20
1275.307416352949
 30
0.0
 11
774.9855321972683
 21
1325.307416352949
 31
0.0
  0
LINE
  5
BF5
330
1F
100
AcDbEntity
  8
STR
  6
BYBLOCK
 62
     0
100
AcDbLine
 10
774.9855321972683
 20
1325.307416352949
 30
0.0
 11
788.3829916972683
 21
1275.307416352949
 31
0.0
  0
LINE
  5
BF6
330
1F
100
AcDbEntity
  8
STR
  6
BYBLOCK
 62
     0
100
AcDbLine
 10
774.9855321972683
 20
1325.307416352949
 30
0.0
 11
774.9855321972683
 21
1275.307416352949
 31
0.0
  0
TEXT
  5
BF7
330
1F
100
AcDbEntity
  8
STR
100
AcDbText
 10
1641.716960442935
 20
509.3831023086279
 30
0.0
 40
60.0
  1
2080
100
AcDbText
  0
LINE
  5
BF8
330
1F
100
AcDbEntity
  8
STR
  6
BYBLOCK
 62
     0
100
AcDbLine
 10
1258.807629419239
 20
1175.307416352949
 30
0.0
 11
1245.410169919239
 21
1125.307416352949
 31
0.0
  0
LINE
  5
BF9
330
1F
100
AcDbEntity
  8
STR
  6
BYBLOCK
 62
     0
100
AcDbLine
 10
1245.410169919239
 20
1125.307416352949
 30
0.0
 11
1232.012710419239
 21
1175.307416352949
 31
0.0
  0
LINE
  5
BFA
330
1F
100
AcDbEntity
  8
STR
  6
BYBLOCK
 62
     0
100
AcDbLine
 10
1245.410169919239
 20
1125.307416352949
 30
0.0
 11
1245.410169919239
 21
1175.307416352949
 31
0.0
  0
LINE
  5
BFB
330
1F
100
AcDbEntity
  8
STR
  6
BYBLOCK
 62
     0
100
AcDbLine
 10
2121.716960442935
 20
2307.706742341646
 30
0.0
 11
2071.716960442935
 21
2321.104201841646
 31
0.0
  0
LINE
  5
BFC
330
1F
100
AcDbEntity
  8
STR
  6
BYBLOCK
 62
     0
100
AcDbLine
 10
2071.716960442935
 20
2321.104201841646
 30
0.0
 11
2121.716960442935
 21
2334.501661341646
 31
0.0
  0
LINE
  5
BFD
330
1F
100
AcDbEntity
  8
STR
  6
BYBLOCK
 62
     0
100
AcDbLine
 10
2071.716960442935
 20
2321.104201841646
 30
0.0
 11
2121.716960442935
 21
2321.104201841646
 31
0.0
  0
TEXT
  5
BFE
330
1F
100
AcDbEntity
  8
STR
100
AcDbText
 10
2269.716960442935
 20
2188.214478992106
 30
0.0
 40
60.0
  1
256
100
AcDbText
  0
LINE
  5
BFF
330
1F
100
AcDbEntity
  8
STR
  6
BYBLOCK
 62
     0
100
AcDbLine
 10
2271.716960442935
 20
2144.817019492106
 30
0.0
 11
2221.716960442936
 21
2158.214478992106
 31
0.0
  0
LINE
  5
C00
330
1F
100
AcDbEntity
  8
STR
  6
BYBLOCK
 62
     0
100
AcDbLine
 10
2221.716960442936
 20
2158.214478992106
 30
0.0
 11
2271.716960442935
 21
2171.611938492106
 31
0.0
  0
LINE
  5
C01
330
1F
100
AcDbEntity
  8
STR
  6
BYBLOCK
 62
     0
100
AcDbLine
 10
2221.716960442936
 20
2158.214478992106
 30
0.0
 11
2271.716960442935
 21
2158.214478992106
 31
0.0
  0
LINE
  5
C02
330
1F
100
AcDbEntity
  8
STR
  6
BYBLOCK
 62
     0
100
AcDbLine
 10
2427.716960442935
 20
2171.611938492106
 30
0.0
 11
2477.716960442934
 21
2158.214478992106
 31
0.0
  0
LINE
  5
C03
330
1F
100
AcDbEntity
  8
STR
  6
BYBLOCK
 62
     0
100
AcDbLine
 10
2477.716960442934
 20
2158.214478992106
 30
0.0
 11
2427.716960442935
 21
2144.817019492106
 31
0.0
  0
LINE
  5
C04
330
1F
100
AcDbEntity
  8
STR
  6
BYBLOCK
 62
     0
100
AcDbLine
 10
2477.716960442934
 20
2158.214478992106
 30
0.0
 11
2427.716960442935
 21
2158.214478992106
 31
0.0
  0
TEXT
  5
C05
330
1F
100
AcDbEntity
  8
STR
100
AcDbText
 10
2361.716960442935
 20
2351.104201841646
 30
0.0
 40
60.0
  1
710
100
AcDbText
  0
LINE
  5
C06
330
1F
100
AcDbEntity
  8
STR
  6
BYBLOCK
 62
     0
100
AcDbLine
 10
2731.716960442935
 20
492.780561808628
 30
0.0
 11
2781.716960442935
 21
479.3831023086279
 31
0.0
  0
LINE
  5
C07
330
1F
100
AcDbEntity
  8
STR
  6
BYBLOCK
 62
     0
100
AcDbLine
 10
2781.716960442935
 20
479.3831023086279
 30
0.0
 11
2731.716960442935
 21
465.9856428086278
 31
0.0
  0
LINE
  5
C08
330
1F
100
AcDbEntity
  8
STR
  6
BYBLOCK
 62
     0
100
AcDbLine
 10
2781.716960442935
 20
479.3831023086279
 30
0.0
 11
2731.716960442935
 21
479.3831023086279
 31
0.0
  0
LINE
  5
C09
330
1F
100
AcDbEntity
  8
STR
  6
BYBLOCK
 62
     0
100
AcDbLine
 10
3555.286318829709
 20
422.9873363447551
 30
0.0
 11
3505.286318829709
 21
436.3847958447552
 31
0.0
  0
LINE
  5
C0A
330
1F
100
AcDbEntity
  8
STR
  6
BYBLOCK
 62
     0
100
AcDbLine
 10
3505.286318829709
 20
436.3847958447552
 30
0.0
 11
3555.286318829709
 21
449.7822553447551
 31
0.0
  0
LINE
  5
C0B
330
1F
100
AcDbEntity
  8
STR
  6
BYBLOCK
 62
     0
100
AcDbLine
 10
3505.286318829709
 20
436.3847958447552
 30
0.0
 11
3555.286318829709
 21
436.3847958447552
 31
0.0
  0
TEXT
  5
C0C
330
1F
100
AcDbEntity
  8
STR
100
AcDbText
 10
3760.286318829708
 20
466.3847958447552
 30
0.0
 40
60.0
  1
660
100
AcDbText
  0
TEXT
  5
C0D
330
1F
100
AcDbEntity
  8
STR
100
AcDbText
 10
2937.938975112671
 20
947.8074163529496
 30
0.0
 40
60.0
  1
605
 50
90.0
100
AcDbText
  0
LINE
  5
C0E
330
1F
100
AcDbEntity
  8
STR
  6
BYBLOCK
 62
     0
100
AcDbLine
 10
2981.336434612671
 20
770.3074163529493
 30
0.0
 11
2967.938975112671
 21
720.3074163529493
 31
0.0
  0
LINE
  5
C0F
330
1F
100
AcDbEntity
  8
STR
  6
BYBLOCK
 62
     0
100
AcDbLine
 10
2967.938975112671
 20
720.3074163529493
 30
0.0
 11
2954.541515612671
 21
770.3074163529493
 31
0.0
  0
LINE
  5
C10
330
1F
100
AcDbEntity
  8
STR
  6
BYBLOCK
 62
     0
100
AcDbLine
 10
2967.938975112671
 20
720.3074163529493
 30
0.0
 11
2967.938975112671
 21
770.3074163529493
 31
0.0
  0
LINE
  5
C11
330
1F
100
AcDbEntity
  8
STR
  6
BYBLOCK
 62
     0
100
AcDbLine
 10
3141.933449282408
 20
770.3074163529492
 30
0.0
 11
3128.535989782408
 21
720.3074163529492
 31
0.0
  0
LINE
  5
C12
330
1F
100
AcDbEntity
  8
STR
  6
BYBLOCK
 62
     0
100
AcDbLine
 10
3128.535989782408
 20
720.3074163529492
 30
0.0
 11
3115.138530282408
 21
770.3074163529492
 31
0.0
  0
LINE
  5
C13
330
1F
100
AcDbEntity
  8
STR
  6
BYBLOCK
 62
     0
100
AcDbLine
 10
3128.535989782408
 20
720.3074163529492
 30
0.0
 11
3128.535989782408
 21
770.3074163529492
 31
0.0
  0
TEXT
  5
C14
330
1F
100
AcDbEntity
  8
STR
100
AcDbText
 10
3098.535989782408
 20
1227.807416352949
 30
0.0
 40
60.0
  1
1205
 50
90.0
100
AcDbText
  0
LINE
  5
C15
330
1F
100
AcDbEntity
  8
STR
  6
BYBLOCK
 62
     0
100
AcDbLine
 10
2954.541515612671
 20
1275.307416352949
 30
0.0
 11
2967.938975112672
 21
1325.307416352949
 31
0.0
  0
LINE
  5
C16
330
1F
100
AcDbEntity
  8
STR
  6
BYBLOCK
 62
     0
100
AcDbLine
 10
2967.938975112672
 20
1325.307416352949
 30
0.0
 11
2981.336434612671
 21
1275.307416352949
 31
0.0
  0
LINE
  5
C17
330
1F
100
AcDbEntity
  8
STR
  6
BYBLOCK
 62
     0
100
AcDbLine
 10
2967.938975112672
 20
1325.307416352949
 30
0.0
 11
2967.938975112672
 21
1275.307416352949
 31
0.0
  0
LINE
  5
C18
330
1F
100
AcDbEntity
  8
STR
  6
BYBLOCK
 62
     0
100
AcDbLine
 10
4115.286318829708
 20
449.7822553447552
 30
0.0
 11
4165.286318829708
 21
436.3847958447552
 31
0.0
  0
LINE
  5
C19
330
1F
100
AcDbEntity
  8
STR
  6
BYBLOCK
 62
     0
100
AcDbLine
 10
4165.286318829708
 20
436.3847958447552
 30
0.0
 11
4115.286318829708
 21
422.9873363447551
 31
0.0
  0
LINE
  5
C1A
330
1F
100
AcDbEntity
  8
STR
  6
BYBLOCK
 62
     0
100
AcDbLine
 10
4165.286318829708
 20
436.3847958447552
 30
0.0
 11
4115.286318829708
 21
436.3847958447552
 31
0.0
  0
LINE
  5
C1B
330
1F
100
AcDbEntity
  8
STR
  6
BYBLOCK
 62
     0
100
AcDbLine
 10
4185.286318829707
 20
1138.394770668028
 30
0.0
 11
4235.286318829706
 21
1124.997311168028
 31
0.0
  0
LINE
  5
C1C
330
1F
100
AcDbEntity
  8
STR
  6
BYBLOCK
 62
     0
100
AcDbLine
 10
4235.286318829706
 20
1124.997311168028
 30
0.0
 11
4185.286318829707
 21
1111.599851668028
 31
0.0
  0
LINE
  5
C1D
330
1F
100
AcDbEntity
  8
STR
  6
BYBLOCK
 62
     0
100
AcDbLine
 10
4235.286318829706
 20
1124.997311168028
 30
0.0
 11
4185.286318829707
 21
1124.997311168028
 31
0.0
  0
LINE
  5
C1E
330
1F
100
AcDbEntity
  8
STR
  6
BYBLOCK
 62
     0
100
AcDbLine
 10
4435.286318829707
 20
1111.599851668028
 30
0.0
 11
4385.286318829707
 21
1124.997311168028
 31
0.0
  0
LINE
  5
C1F
330
1F
100
AcDbEntity
  8
STR
  6
BYBLOCK
 62
     0
100
AcDbLine
 10
4385.286318829707
 20
1124.997311168028
 30
0.0
 11
4435.286318829707
 21
1138.394770668028
 31
0.0
  0
LINE
  5
C20
330
1F
100
AcDbEntity
  8
STR
  6
BYBLOCK
 62
     0
100
AcDbLine
 10
4385.286318829707
 20
1124.997311168028
 30
0.0
 11
4435.286318829707
 21
1124.997311168028
 31
0.0
  0
TEXT
  5
C21
330
1F
100
AcDbEntity
  8
STR
100
AcDbText
 10
4515.286318829707
 20
1154.997311168028
 30
0.0
 40
60.0
  1
150
100
AcDbText
  0
LINE
  5
C22
330
1F
100
AcDbEntity
  8
STR
  6
BYBLOCK
 62
     0
100
AcDbLine
 10
3115.138530282409
 20
1875.307416352949
 30
0.0
 11
3128.535989782408
 21
1925.307416352949
 31
0.0
  0
LINE
  5
C23
330
1F
100
AcDbEntity
  8
STR
  6
BYBLOCK
 62
     0
100
AcDbLine
 10
3128.535989782408
 20
1925.307416352949
 30
0.0
 11
3141.933449282408
 21
1875.307416352949
 31
0.0
  0
LINE
  5
C24
330
1F
100
AcDbEntity
  8
STR
  6
BYBLOCK
 62
     0
100
AcDbLine
 10
3128.535989782408
 20
1925.307416352949
 30
0.0
 11
3128.535989782408
 21
1875.307416352949
 31
0.0
  0
LINE
  5
C25
330
1F
100
AcDbEntity
  8
STR
  6
BYBLOCK
 62
     0
100
AcDbLine
 10
2731.716960442935
 20
2334.501661341646
 30
0.0
 11
2781.716960442935
 21
2321.104201841646
 31
0.0
  0
LINE
  5
C26
330
1F
100
AcDbEntity
  8
STR
  6
BYBLOCK
 62
     0
100
AcDbLine
 10
2781.716960442935
 20
2321.104201841646
 30
0.0
 11
2731.716960442935
 21
2307.706742341646
 31
0.0
  0
LINE
  5
C27
330
1F
100
AcDbEntity
  8
STR
  6
BYBLOCK
 62
     0
100
AcDbLine
 10
2781.716960442935
 20
2321.104201841646
 30
0.0
 11
2731.716960442935
 21
2321.104201841646
 31
0.0
  0
LINE
  5
C28
330
1F
100
AcDbEntity
  8
STR
  6
BYBLOCK
 62
     0
100
AcDbLine
 10
3510.286318829708
 20
2297.408198760018
 30
0.0
 11
3460.286318829708
 21
2310.805658260018
 31
0.0
  0
LINE
  5
C29
330
1F
100
AcDbEntity
  8
STR
  6
BYBLOCK
 62
     0
100
AcDbLine
 10
3460.286318829708
 20
2310.805658260018
 30
0.0
 11
3510.286318829708
 21
2324.203117760018
 31
0.0
  0
LINE
  5
C2A
330
1F
100
AcDbEntity
  8
STR
  6
BYBLOCK
 62
     0
100
AcDbLine
 10
3460.286318829708
 20
2310.805658260018
 30
0.0
 11
3510.286318829708
 21
2310.805658260018
 31
0.0
  0
TEXT
  5
C2B
330
1F
100
AcDbEntity
  8
STR
100
AcDbText
 10
3760.286318829707
 20
2340.805658260018
 30
0.0
 40
60.0
  1
750
100
AcDbText
  0
LINE
  5
C2C
330
1F
100
AcDbEntity
  8
STR
  6
BYBLOCK
 62
     0
100
AcDbLine
 10
4160.286318829705
 20
2324.203117760018
 30
0.0
 11
4210.286318829704
 21
2310.805658260018
 31
0.0
  0
LINE
  5
C2D
330
1F
100
AcDbEntity
  8
STR
  6
BYBLOCK
 62
     0
100
AcDbLine
 10
4210.286318829704
 20
2310.805658260018
 30
0.0
 11
4160.286318829705
 21
2297.408198760018
 31
0.0
  0
LINE
  5
C2E
330
1F
100
AcDbEntity
  8
STR
  6
BYBLOCK
 62
     0
100
AcDbLine
 10
4210.286318829704
 20
2310.805658260018
 30
0.0
 11
4160.286318829705
 21
2310.805658260018
 31
0.0
  0
ENDSEC
  0
SECTION
  2
OBJECTS
  0
DICTIONARY
  5
C
330
0
100
AcDbDictionary
  3
ACAD_COLOR
350
6B
  3
ACAD_GROUP
350
D
  3
ACAD_LAYOUT
350
1A
  3
ACAD_MATERIAL
350
6A
  3
ACAD_MLINESTYLE
350
17
  3
ACAD_PLOTSETTINGS
350
19
  3
ACAD_PLOTSTYLENAME
350
E
  3
ACDBHEADERROUNDTRIPXREC
350
C30
  3
ACDBVARIABLEDICTIONARY
350
5E
  0
DICTIONARY
  5
A81
330
1F
100
AcDbDictionary
280
     1
  3
ACAD_LAYOUTSELFREF
360
C51
  0
DICTIONARY
  5
A83
330
9CF
100
AcDbDictionary
280
     1
  3
ACAD_LAYOUTSELFREF
360
C52
  0
DICTIONARY
  5
6B
102
{ACAD_REACTORS
330
C
102
}
330
C
100
AcDbDictionary
  0
DICTIONARY
  5
D
102
{ACAD_REACTORS
330
C
102
}
330
C
100
AcDbDictionary
  0
DICTIONARY
  5
1A
102
{ACAD_REACTORS
330
C
102
}
330
C
100
AcDbDictionary
  0
DICTIONARY
  5
6A
102
{ACAD_REACTORS
330
C
102
}
330
C
100
AcDbDictionary
  0
DICTIONARY
  5
17
102
{ACAD_REACTORS
330
C
102
}
330
C
100
AcDbDictionary
  3
STANDARD
350
18
  0
DICTIONARY
  5
19
102
{ACAD_REACTORS
330
C
102
}
330
C
100
AcDbDictionary
  0
ACDBDICTIONARYWDFLT
  5
E
102
{ACAD_REACTORS
330
C
102
}
330
C
100
AcDbDictionary
281
     1
  3
Normal
350
F
100
AcDbDictionaryWithDefault
340
F
  0
DICTIONARY
  5
C30
102
{ACAD_REACTORS
330
C
102
}
330
C
100
AcDbDictionary
  3
CEPSNTYPE
350
C3A
  3
DIMSTYLEDATA
350
C3E
  3
FINGERPRINTGUID
350
C3B
  3
HYPERLINKBASE
350
C33
  3
INSUNITS
350
C39
  3
LAYOUTDICT
350
C35
  3
LWETCUNION
350
C38
  3
PLOTSETDICT
350
C36
  3
PLOTSTYLNAMDICT
350
C37
  3
PSVPSCALE
350
C3D
  3
PUCSBASE
350
C41
  3
PUCSORGBACK
350
C47
  3
PUCSORGBOTTOM
350
C43
  3
PUCSORGFRONT
350
C46
  3
PUCSORGLEFT
350
C44
  3
PUCSORGRIGHT
350
C45
  3
PUCSORGTOP
350
C42
  3
PUCSORTHOREF
350
C3F
  3
PUCSORTHOVIEW
350
C40
  3
STYLESHEET
350
C34
  3
TSTACKALIGN
350
C31
  3
TSTACKSIZE
350
C32
  3
UCSBASE
350
C4A
  3
UCSORGBACK
350
C50
  3
UCSORGBOTTOM
350
C4C
  3
UCSORGFRONT
350
C4F
  3
UCSORGLEFT
350
C4D
  3
UCSORGRIGHT
350
C4E
  3
UCSORGTOP
350
C4B
  3
UCSORTHOREF
350
C48
  3
UCSORTHOVIEW
350
C49
  3
VERSIONGUID
350
C3C
  0
DICTIONARY
  5
5E
102
{ACAD_REACTORS
330
C
102
}
330
C
100
AcDbDictionary
  3
DIMASSOC
350
5F
  3
HIDETEXT
350
63
  3
PROJECTNAME
350
A1B
  0
XRECORD
  5
C51
102
{ACAD_REACTORS
330
A81
102
}
330
A81
100
AcDbXrecord
340
1F
  0
XRECORD
  5
C52
102
{ACAD_REACTORS
330
A83
102
}
330
A83
100
AcDbXrecord
340
9CF
  0
MLINESTYLE
  5
18
102
{ACAD_REACTORS
330
17
102
}
330
17
100
AcDbMlineStyle
  2
STANDARD
 70
     0
  3

 62
   256
 51
90.0
 52
90.0
 71
     2
 49
0.5
 62
   256
  6
BYLAYER
 49
-0.5
 62
   256
  6
BYLAYER
  0
ACDBPLACEHOLDER
  5
F
102
{ACAD_REACTORS
330
E
102
}
330
E
100
AcDbPlaceHolder
280
     0
  0
XRECORD
  5
C3A
102
{ACAD_REACTORS
330
C30
102
}
330
C30
100
AcDbXrecord
 90
        0
  0
XRECORD
  5
C3E
102
{ACAD_REACTORS
330
C30
102
}
330
C30
100
AcDbXrecord
1000
DSTYLE
1002
{
1070
   278
 70
    44
1070
   341
340
ED
1070
   342
340
9F
1002
}
  0
XRECORD
  5
C3B
102
{ACAD_REACTORS
330
C30
102
}
330
C30
100
AcDbXrecord
  1
{FDEAD578-A652-11D2-9A35-0060089B3A3F}
  0
XRECORD
  5
C33
102
{ACAD_REACTORS
330
C30
102
}
330
C30
100
AcDbXrecord
  1

  0
XRECORD
  5
C39
102
{ACAD_REACTORS
330
C30
102
}
330
C30
100
AcDbXrecord
 90
        4
  0
XRECORD
  5
C35
102
{ACAD_REACTORS
330
C30
102
}
330
C30
100
AcDbXrecord
340
1A
  0
XRECORD
  5
C38
102
{ACAD_REACTORS
330
C30
102
}
330
C30
100
AcDbXrecord
 90
    10781
  0
XRECORD
  5
C36
102
{ACAD_REACTORS
330
C30
102
}
330
C30
100
AcDbXrecord
340
19
  0
XRECORD
  5
C37
102
{ACAD_REACTORS
330
C30
102
}
330
C30
100
AcDbXrecord
340
E
  0
XRECORD
  5
C3D
102
{ACAD_REACTORS
330
C30
102
}
330
C30
100
AcDbXrecord
 40
0.0
  0
XRECORD
  5
C41
102
{ACAD_REACTORS
330
C30
102
}
330
C30
100
AcDbXrecord
340
0
  0
XRECORD
  5
C47
102
{ACAD_REACTORS
330
C30
102
}
330
C30
100
AcDbXrecord
 10
0.0
 20
0.0
 30
0.0
  0
XRECORD
  5
C43
102
{ACAD_REACTORS
330
C30
102
}
330
C30
100
AcDbXrecord
 10
0.0
 20
0.0
 30
0.0
  0
XRECORD
  5
C46
102
{ACAD_REACTORS
330
C30
102
}
330
C30
100
AcDbXrecord
 10
0.0
 20
0.0
 30
0.0
  0
XRECORD
  5
C44
102
{ACAD_REACTORS
330
C30
102
}
330
C30
100
AcDbXrecord
 10
0.0
 20
0.0
 30
0.0
  0
XRECORD
  5
C45
102
{ACAD_REACTORS
330
C30
102
}
330
C30
100
AcDbXrecord
 10
0.0
 20
0.0
 30
0.0
  0
XRECORD
  5
C42
102
{ACAD_REACTORS
330
C30
102
}
330
C30
100
AcDbXrecord
 10
0.0
 20
0.0
 30
0.0
  0
XRECORD
  5
C3F
102
{ACAD_REACTORS
330
C30
102
}
330
C30
100
AcDbXrecord
340
0
  0
XRECORD
  5
C40
102
{ACAD_REACTORS
330
C30
102
}
330
C30
100
AcDbXrecord
 70
     0
  0
XRECORD
  5
C34
102
{ACAD_REACTORS
330
C30
102
}
330
C30
100
AcDbXrecord
  1

  0
XRECORD
  5
C31
102
{ACAD_REACTORS
330
C30
102
}
330
C30
100
AcDbXrecord
 90
        1
  0
XRECORD
  5
C32
102
{ACAD_REACTORS
330
C30
102
}
330
C30
100
AcDbXrecord
 90
       70
  0
XRECORD
  5
C4A
102
{ACAD_REACTORS
330
C30
102
}
330
C30
100
AcDbXrecord
340
0
  0
XRECORD
  5
C50
102
{ACAD_REACTORS
330
C30
102
}
330
C30
100
AcDbXrecord
 10
0.0
 20
0.0
 30
0.0
  0
XRECORD
  5
C4C
102
{ACAD_REACTORS
330
C30
102
}
330
C30
100
AcDbXrecord
 10
0.0
 20
0.0
 30
0.0
  0
XRECORD
  5
C4F
102
{ACAD_REACTORS
330
C30
102
}
330
C30
100
AcDbXrecord
 10
0.0
 20
0.0
 30
0.0
  0
XRECORD
  5
C4D
102
{ACAD_REACTORS
330
C30
102
}
330
C30
100
AcDbXrecord
 10
0.0
 20
0.0
 30
0.0
  0
XRECORD
  5
C4E
102
{ACAD_REACTORS
330
C30
102
}
330
C30
100
AcDbXrecord
 10
0.0
 20
0.0
 30
0.0
  0
XRECORD
  5
C4B
102
{ACAD_REACTORS
330
C30
102
}
330
C30
100
AcDbXrecord
 10
0.0
 20
0.0
 30
0.0
  0
XRECORD
  5
C48
102
{ACAD_REACTORS
330
C30
102
}
330
C30
100
AcDbXrecord
340
0
  0
XRECORD
  5
C49
102
{ACAD_REACTORS
330
C30
102
}
330
C30
100
AcDbXrecord
 70
     0
  0
XRECORD
  5
C3C
102
{ACAD_REACTORS
330
C30
102
}
330
C30
100
AcDbXrecord
  1
{26925989-177E-4716-B9AD-7574627FCB98}
  0
DICTIONARYVAR
  5
5F
102
{ACAD_REACTORS
330
5E
102
}
330
5E
100
DictionaryVariables
280
     0
  1
2
  0
DICTIONARYVAR
  5
63
102
{ACAD_REACTORS
330
5E
102
}
330
5E
100
DictionaryVariables
280
     0
  1
1
  0
DICTIONARYVAR
  5
A1B
102
{ACAD_REACTORS
330
5E
102
}
330
5E
100
DictionaryVariables
280
     0
  1

  0
ENDSEC
  0
EOF
