  0
SECTION
  2
HEADER
  9
$ACADVER
  1
AC1014
  9
$ACADMAINTVER
 70
     9
  9
$DWGCODEPAGE
  3
ANSI_932
  9
$INSBASE
 10
0.0
 20
0.0
 30
0.0
  9
$EXTMIN
 10
1149.058421888278
 20
1078.637782143969
 30
0.0
  9
$EXTMAX
 10
3402.552085193173
 20
7689.896203598944
 30
0.0
  9
$LIMMIN
 10
0.0
 20
0.0
  9
$LIMMAX
 10
5940.0
 20
8410.0
  9
$ORTHOMODE
 70
     0
  9
$REGENMODE
 70
     1
  9
$FILLMODE
 70
     1
  9
$QTEXTMODE
 70
     0
  9
$MIRRTEXT
 70
     0
  9
$DRAGMODE
 70
     2
  9
$LTSCALE
 40
1.0
  9
$OSMODE
 70
    47
  9
$ATTMODE
 70
     1
  9
$TEXTSIZE
 40
10.41881818803381
  9
$TRACEWID
 40
1.0
  9
$TEXTSTYLE
  7
STANDARD
  9
$CLAYER
  8
BMK
  9
$CELTYPE
  6
BYLAYER
  9
$CECOLOR
 62
     2
  9
$CELTSCALE
 40
1.0
  9
$DELOBJ
 70
     1
  9
$DISPSILH
 70
     0
  9
$DIMSCALE
 40
1.0
  9
$DIMASZ
 40
30.0
  9
$DIMEXO
 40
0.625
  9
$DIMDLI
 40
3.75
  9
$DIMRND
 40
0.0
  9
$DIMDLE
 40
0.0
  9
$DIMEXE
 40
1.25
  9
$DIMTP
 40
0.0
  9
$DIMTM
 40
0.0
  9
$DIMTXT
 40
60.0
  9
$DIMCEN
 40
2.5
  9
$DIMTSZ
 40
0.0
  9
$DIMTOL
 70
     0
  9
$DIMLIM
 70
     0
  9
$DIMTIH
 70
     0
  9
$DIMTOH
 70
     0
  9
$DIMSE1
 70
     0
  9
$DIMSE2
 70
     0
  9
$DIMTAD
 70
     1
  9
$DIMZIN
 70
     8
  9
$DIMBLK
  1
OPEN30
  9
$DIMASO
 70
     1
  9
$DIMSHO
 70
     1
  9
$DIMPOST
  1

  9
$DIMAPOST
  1

  9
$DIMALT
 70
     0
  9
$DIMALTD
 70
     3
  9
$DIMALTF
 40
0.03937007874016
  9
$DIMLFAC
 40
1.0
  9
$DIMTOFL
 70
     1
  9
$DIMTVP
 40
0.0
  9
$DIMTIX
 70
     0
  9
$DIMSOXD
 70
     0
  9
$DIMSAH
 70
     0
  9
$DIMBLK1
  1

  9
$DIMBLK2
  1

  9
$DIMSTYLE
  2
ISO-25
  9
$DIMCLRD
 70
     0
  9
$DIMCLRE
 70
     0
  9
$DIMCLRT
 70
     0
  9
$DIMTFAC
 40
1.0
  9
$DIMGAP
 40
10.0
  9
$DIMJUST
 70
     0
  9
$DIMSD1
 70
     0
  9
$DIMSD2
 70
     0
  9
$DIMTOLJ
 70
     0
  9
$DIMTZIN
 70
     8
  9
$DIMALTZ
 70
     0
  9
$DIMALTTZ
 70
     0
  9
$DIMFIT
 70
     3
  9
$DIMUPT
 70
     0
  9
$DIMUNIT
 70
     2
  9
$DIMDEC
 70
     2
  9
$DIMTDEC
 70
     2
  9
$DIMALTU
 70
     2
  9
$DIMALTTD
 70
     3
  9
$DIMTXSTY
  7
STANDARD
  9
$DIMAUNIT
 70
     0
  9
$LUNITS
 70
     2
  9
$LUPREC
 70
     4
  9
$SKETCHINC
 40
1.0
  9
$FILLETRAD
 40
0.0
  9
$AUNITS
 70
     0
  9
$AUPREC
 70
     0
  9
$MENU
  1
.
  9
$ELEVATION
 40
0.0
  9
$PELEVATION
 40
0.0
  9
$THICKNESS
 40
0.0
  9
$LIMCHECK
 70
     0
  9
$BLIPMODE
 70
     0
  9
$CHAMFERA
 40
0.0
  9
$CHAMFERB
 40
0.0
  9
$CHAMFERC
 40
0.0
  9
$CHAMFERD
 40
0.0
  9
$SKPOLY
 70
     0
  9
$TDCREATE
 40
2453468.639778229
  9
$TDUPDATE
 40
2453468.726562766
  9
$TDINDWG
 40
0.0839515741
  9
$TDUSRTIMER
 40
0.0839465162
  9
$USRTIMER
 70
     1
  9
$ANGBASE
 50
0.0
  9
$ANGDIR
 70
     0
  9
$PDMODE
 70
     0
  9
$PDSIZE
 40
0.0
  9
$PLINEWID
 40
0.0
  9
$COORDS
 70
     1
  9
$SPLFRAME
 70
     0
  9
$SPLINETYPE
 70
     6
  9
$SPLINESEGS
 70
     8
  9
$ATTDIA
 70
     0
  9
$ATTREQ
 70
     1
  9
$HANDLING
 70
 22529
  9
$HANDSEED
  5
BEF
  9
$SURFTAB1
 70
     6
  9
$SURFTAB2
 70
     6
  9
$SURFTYPE
 70
     6
  9
$SURFU
 70
     6
  9
$SURFV
 70
     6
  9
$UCSNAME
  2

  9
$UCSORG
 10
0.0
 20
0.0
 30
0.0
  9
$UCSXDIR
 10
1.0
 20
0.0
 30
0.0
  9
$UCSYDIR
 10
0.0
 20
1.0
 30
0.0
  9
$PUCSNAME
  2

  9
$PUCSORG
 10
0.0
 20
0.0
 30
0.0
  9
$PUCSXDIR
 10
1.0
 20
0.0
 30
0.0
  9
$PUCSYDIR
 10
0.0
 20
1.0
 30
0.0
  9
$USERI1
 70
     0
  9
$USERI2
 70
     0
  9
$USERI3
 70
     0
  9
$USERI4
 70
     0
  9
$USERI5
 70
     0
  9
$USERR1
 40
0.0
  9
$USERR2
 40
0.0
  9
$USERR3
 40
0.0
  9
$USERR4
 40
0.0
  9
$USERR5
 40
0.0
  9
$WORLDVIEW
 70
     1
  9
$SHADEDGE
 70
     3
  9
$SHADEDIF
 70
    70
  9
$TILEMODE
 70
     1
  9
$MAXACTVP
 70
    48
  9
$PINSBASE
 10
0.0
 20
0.0
 30
0.0
  9
$PLIMCHECK
 70
     0
  9
$PEXTMIN
 10
-3.476582788397536
 20
-5.496208796842381
 30
0.0
  9
$PEXTMAX
 10
198.0412721146045
 20
288.1059522835063
 30
0.0
  9
$PLIMMIN
 10
-5.873749732971191
 20
-5.916075706481933
  9
$PLIMMAX
 10
204.0995779037475
 20
291.0522470474243
  9
$UNITMODE
 70
     0
  9
$VISRETAIN
 70
     1
  9
$PLINEGEN
 70
     0
  9
$PSLTSCALE
 70
     1
  9
$TREEDEPTH
 70
  3020
  9
$PICKSTYLE
 70
     1
  9
$CMLSTYLE
  2
STANDARD
  9
$CMLJUST
 70
     0
  9
$CMLSCALE
 40
20.0
  9
$PROXYGRAPHICS
 70
     1
  9
$MEASUREMENT
 70
     1
  0
ENDSEC
  0
SECTION
  2
CLASSES
  0
CLASS
  1
ACDBDICTIONARYWDFLT
  2
AcDbDictionaryWithDefault
  3
AutoCAD 2000
 90
        0
280
     0
281
     0
  0
CLASS
  1
ACDBPLACEHOLDER
  2
AcDbPlaceHolder
  3
AutoCAD 2000
 90
        0
280
     0
281
     0
  0
CLASS
  1
LAYOUT
  2
AcDbLayout
  3
AutoCAD 2000
 90
        0
280
     0
281
     0
  0
CLASS
  1
DICTIONARYVAR
  2
AcDbDictionaryVar
  3
AutoCAD 2000
 90
        0
280
     0
281
     0
  0
CLASS
  1
RASTERVARIABLES
  2
AcDbRasterVariables
  3
ISM
 90
        0
280
     0
281
     0
  0
CLASS
  1
IMAGEDEF
  2
AcDbRasterImageDef
  3
ISM
 90
        0
280
     0
281
     0
  0
CLASS
  1
IMAGEDEF_REACTOR
  2
AcDbRasterImageDefReactor
  3
ISM
 90
        1
280
     0
281
     0
  0
CLASS
  1
IMAGE
  2
AcDbRasterImage
  3
ISM
 90
      127
280
     0
281
     1
  0
CLASS
  1
SORTENTSTABLE
  2
AcDbSortentsTable
  3
AutoCAD 2000
 90
        0
280
     0
281
     0
  0
CLASS
  1
DIMASSOC
  2
AcDbDimAssoc
  3
"AcDbDimAssoc|Product Desc:     AcDim ARX App For Dimension|Company:          Autodesk, Inc.|WEB Address:      www.autodesk.com"
 90
        0
280
     0
281
     0
  0
CLASS
  1
LONG_TRANSACTION
  2
AcDbLongTransaction
  3
AutoCAD 2000
 90
        0
280
     0
281
     0
  0
CLASS
  1
LWPOLYLINE
  2
AcDbPolyline
  3
AutoCAD 2000
 90
        0
280
     0
281
     1
  0
CLASS
  1
HATCH
  2
AcDbHatch
  3
AutoCAD 2000
 90
        0
280
     0
281
     1
  0
CLASS
  1
XRECORD
  2
AcDbXrecord
  3
AutoCAD 2000
 90
        0
280
     0
281
     0
  0
CLASS
  1
LONG_TRANSACTION
  2
AcDbLongTransaction
  3
AutoCAD 2000
 90
        0
280
     0
281
     0
  0
CLASS
  1
LWPOLYLINE
  2
AcDbPolyline
  3
AutoCAD 2000
 90
        0
280
     0
281
     1
  0
CLASS
  1
HATCH
  2
AcDbHatch
  3
AutoCAD 2000
 90
        0
280
     0
281
     1
  0
CLASS
  1
XRECORD
  2
AcDbXrecord
  3
AutoCAD 2000
 90
        0
280
     0
281
     0
  0
ENDSEC
  0
SECTION
  2
TABLES
  0
TABLE
  2
VPORT
  5
8
330
0
100
AcDbSymbolTable
 70
     3
  0
VPORT
  5
BCA
330
8
100
AcDbSymbolTableRecord
100
AcDbViewportTableRecord
  2
*ACTIVE
 70
     0
 10
0.0
 20
0.0
 11
1.0
 21
1.0
 12
2970.0
 22
4205.0
 13
0.0
 23
0.0
 14
10.0
 24
10.0
 15
10.0
 25
10.0
 16
0.0
 26
0.0
 36
1.0
 17
0.0
 27
0.0
 37
0.0
 40
8462.290155440417
 41
1.580912863070539
 42
50.0
 43
0.0
 44
0.0
 50
0.0
 51
0.0
 71
     0
 72
  1000
 73
     1
 74
     3
 75
     0
 76
     0
 77
     0
 78
     0
  0
ENDTAB
  0
TABLE
  2
LTYPE
  5
5
330
0
100
AcDbSymbolTable
 70
     2
  0
LTYPE
  5
14
330
5
100
AcDbSymbolTableRecord
100
AcDbLinetypeTableRecord
  2
BYBLOCK
 70
     0
  3

 72
    65
 73
     0
 40
0.0
  0
LTYPE
  5
15
330
5
100
AcDbSymbolTableRecord
100
AcDbLinetypeTableRecord
  2
BYLAYER
 70
     0
  3

 72
    65
 73
     0
 40
0.0
  0
LTYPE
  5
16
330
5
100
AcDbSymbolTableRecord
100
AcDbLinetypeTableRecord
  2
CONTINUOUS
 70
     0
  3
Solid line
 72
    65
 73
     0
 40
0.0
  0
LTYPE
  5
731
330
5
100
AcDbSymbolTableRecord
100
AcDbLinetypeTableRecord
  2
CENTER
 70
     0
  3
Center ____ _ ____ _ ____ _ ____ _ ____ _ ____
 72
    65
 73
     4
 40
50.8
 49
31.75
 74
     0
 49
-6.349999999999999
 74
     0
 49
6.349999999999999
 74
     0
 49
-6.349999999999999
 74
     0
  0
ENDTAB
  0
TABLE
  2
LAYER
  5
2
330
0
100
AcDbSymbolTable
 70
     4
  0
LAYER
  5
10
330
2
100
AcDbSymbolTableRecord
100
AcDbLayerTableRecord
  2
0
 70
     0
 62
   252
  6
CONTINUOUS
  0
LAYER
  5
99
330
2
100
AcDbSymbolTableRecord
100
AcDbLayerTableRecord
  2
STR
 70
     0
 62
     7
  6
CONTINUOUS
  0
LAYER
  5
9A
330
2
100
AcDbSymbolTableRecord
100
AcDbLayerTableRecord
  2
BMK
 70
     0
 62
     1
  6
CENTER
  0
LAYER
  5
354
330
2
100
AcDbSymbolTableRecord
100
AcDbLayerTableRecord
  2
DEFPOINTS
 70
     0
 62
     7
  6
CONTINUOUS
  0
ENDTAB
  0
TABLE
  2
STYLE
  5
3
330
0
100
AcDbSymbolTable
 70
     1
  0
STYLE
  5
11
330
3
100
AcDbSymbolTableRecord
100
AcDbTextStyleTableRecord
  2
STANDARD
 70
     0
 40
0.0
 41
1.0
 50
0.0
 71
     0
 42
10.41881818803381
  3
txt.shx
  4
bigfont.shx
  0
ENDTAB
  0
TABLE
  2
VIEW
  5
6
330
0
100
AcDbSymbolTable
 70
     0
  0
ENDTAB
  0
TABLE
  2
UCS
  5
7
330
0
100
AcDbSymbolTable
 70
     0
  0
ENDTAB
  0
TABLE
  2
APPID
  5
9
330
0
100
AcDbSymbolTable
 70
     1
  0
APPID
  5
12
330
9
100
AcDbSymbolTableRecord
100
AcDbRegAppTableRecord
  2
ACAD
 70
     0
  0
ENDTAB
  0
TABLE
  2
DIMSTYLE
  5
A
330
0
100
AcDbSymbolTable
 70
     1
  0
DIMSTYLE
105
27
330
A
100
AcDbSymbolTableRecord
100
AcDbDimStyleTableRecord
  2
ISO-25
 70
     0
  3

  4

  5
OPEN30
  6

  7

 40
1.0
 41
30.0
 42
0.625
 43
3.75
 44
1.25
 45
0.0
 46
0.0
 47
0.0
 48
0.0
140
60.0
141
2.5
142
0.0
143
0.03937007874016
144
1.0
145
0.0
146
1.0
147
10.0
 71
     0
 72
     0
 73
     0
 74
     0
 75
     0
 76
     0
 77
     1
 78
     8
170
     0
171
     3
172
     1
173
     0
174
     0
175
     0
176
     0
177
     0
178
     0
270
     2
271
     2
272
     2
273
     2
274
     3
340
11
275
     0
280
     0
281
     0
282
     0
283
     0
284
     8
285
     0
286
     0
287
     3
288
     0
  0
ENDTAB
  0
TABLE
  2
BLOCK_RECORD
  5
1
330
0
100
AcDbSymbolTable
 70
    13
  0
BLOCK_RECORD
  5
1F
102
{ACAD_XDICTIONARY
360
1F4
102
}
330
1
100
AcDbSymbolTableRecord
100
AcDbBlockTableRecord
  2
*MODEL_SPACE
  0
BLOCK_RECORD
  5
50
102
{ACAD_XDICTIONARY
360
A9A
102
}
330
1
100
AcDbSymbolTableRecord
100
AcDbBlockTableRecord
  2
*PAPER_SPACE
  0
BLOCK_RECORD
  5
355
330
1
100
AcDbSymbolTableRecord
100
AcDbBlockTableRecord
  2
*D1
  0
BLOCK_RECORD
  5
390
330
1
100
AcDbSymbolTableRecord
100
AcDbBlockTableRecord
  2
_OPEN30
  0
BLOCK_RECORD
  5
3B2
330
1
100
AcDbSymbolTableRecord
100
AcDbBlockTableRecord
  2
*D3
  0
BLOCK_RECORD
  5
401
330
1
100
AcDbSymbolTableRecord
100
AcDbBlockTableRecord
  2
*D4
  0
BLOCK_RECORD
  5
419
330
1
100
AcDbSymbolTableRecord
100
AcDbBlockTableRecord
  2
*D5
  0
BLOCK_RECORD
  5
426
330
1
100
AcDbSymbolTableRecord
100
AcDbBlockTableRecord
  2
*D6
  0
BLOCK_RECORD
  5
433
330
1
100
AcDbSymbolTableRecord
100
AcDbBlockTableRecord
  2
*D7
  0
BLOCK_RECORD
  5
477
330
1
100
AcDbSymbolTableRecord
100
AcDbBlockTableRecord
  2
*D8
  0
BLOCK_RECORD
  5
48F
330
1
100
AcDbSymbolTableRecord
100
AcDbBlockTableRecord
  2
*D9
  0
BLOCK_RECORD
  5
570
330
1
100
AcDbSymbolTableRecord
100
AcDbBlockTableRecord
  2
*D10
  0
BLOCK_RECORD
  5
82F
330
1
100
AcDbSymbolTableRecord
100
AcDbBlockTableRecord
  2
*D11
  0
BLOCK_RECORD
  5
85B
330
1
100
AcDbSymbolTableRecord
100
AcDbBlockTableRecord
  2
*D12
  0
ENDTAB
  0
ENDSEC
  0
SECTION
  2
BLOCKS
  0
BLOCK
  5
20
330
1F
100
AcDbEntity
  8
0
100
AcDbBlockBegin
  2
*MODEL_SPACE
 70
     0
 10
0.0
 20
0.0
 30
0.0
  3
*MODEL_SPACE
  1

  0
ENDBLK
  5
21
330
1F
100
AcDbEntity
  8
0
100
AcDbBlockEnd
  0
BLOCK
  5
52
330
50
100
AcDbEntity
 67
     1
  8
0
100
AcDbBlockBegin
  2
*PAPER_SPACE
 70
     0
 10
0.0
 20
0.0
 30
0.0
  3
*PAPER_SPACE
  1

  0
ENDBLK
  5
53
330
50
100
AcDbEntity
 67
     1
  8
0
100
AcDbBlockEnd
  0
BLOCK
  5
35F
330
355
100
AcDbEntity
  8
0
100
AcDbBlockBegin
  2
*D1
 70
     1
 10
0.0
 20
0.0
 30
0.0
  3
*D1
  1

  0
LINE
  5
A14
330
355
100
AcDbEntity
  8
STR
 62
     0
100
AcDbLine
 10
2139.510393728897
 20
3682.839821806809
 30
0.0
 11
3395.763609493172
 21
3682.839821806809
 31
0.0
  0
LINE
  5
A15
330
355
100
AcDbEntity
  8
STR
 62
     0
100
AcDbLine
 10
2892.62343956606
 20
1682.83982180681
 30
0.0
 11
3395.763609493172
 21
1682.83982180681
 31
0.0
  0
LINE
  5
A16
330
355
100
AcDbEntity
  8
STR
 62
     0
100
AcDbLine
 10
3394.513609493172
 20
3652.839821806809
 30
0.0
 11
3394.513609493172
 21
1712.839821806809
 31
0.0
  0
INSERT
  5
A17
330
355
100
AcDbEntity
  8
STR
 62
     0
100
AcDbBlockReference
  2
_OPEN30
 10
3394.513609493172
 20
3682.839821806809
 30
0.0
 41
30.0
 42
30.0
 43
30.0
 50
90.0
  0
INSERT
  5
A18
330
355
100
AcDbEntity
  8
STR
 62
     0
100
AcDbBlockReference
  2
_OPEN30
 10
3394.513609493172
 20
1682.83982180681
 30
0.0
 41
30.0
 42
30.0
 43
30.0
 50
270.0
  0
MTEXT
  5
A19
330
355
100
AcDbEntity
  8
STR
 62
     0
100
AcDbMText
 10
3354.513609493172
 20
2682.83982180681
 30
0.0
 40
60.0
 41
0.0
 71
     5
 72
     1
  1
2000
 11
0.0000000000000001
 21
1.0
 31
0.0
1001
ACAD
1000
MTEXTBEGIN
1070
    73
1070
     1
1070
    44
1040
1.0
1070
    74
1070
     0
1000
MTEXTEND
  0
POINT
  5
A1A
330
355
100
AcDbEntity
  8
DEFPOINTS
 62
     0
100
AcDbPoint
 10
2138.885393728898
 20
3682.839821806809
 30
0.0
  0
POINT
  5
A1B
330
355
100
AcDbEntity
  8
DEFPOINTS
 62
     0
100
AcDbPoint
 10
2891.99843956606
 20
1682.83982180681
 30
0.0
  0
POINT
  5
A1C
330
355
100
AcDbEntity
  8
DEFPOINTS
 62
     0
100
AcDbPoint
 10
3394.513609493172
 20
1682.83982180681
 30
0.0
  0
ENDBLK
  5
360
330
355
100
AcDbEntity
  8
0
100
AcDbBlockEnd
  0
BLOCK
  5
394
330
390
100
AcDbEntity
  8
0
100
AcDbBlockBegin
  2
_OPEN30
 70
     0
 10
0.0
 20
0.0
 30
0.0
  3
_OPEN30
  1

  0
LINE
  5
391
330
390
100
AcDbEntity
  8
0
  6
BYBLOCK
 62
     0
100
AcDbLine
 10
-1.0
 20
0.26794919
 30
0.0
 11
0.0
 21
0.0
 31
0.0
  0
LINE
  5
392
330
390
100
AcDbEntity
  8
0
  6
BYBLOCK
 62
     0
100
AcDbLine
 10
0.0
 20
0.0
 30
0.0
 11
-1.0
 21
-0.26794919
 31
0.0
  0
LINE
  5
393
330
390
100
AcDbEntity
  8
0
  6
BYBLOCK
 62
     0
100
AcDbLine
 10
0.0
 20
0.0
 30
0.0
 11
-1.0
 21
0.0
 31
0.0
  0
ENDBLK
  5
395
330
390
100
AcDbEntity
  8
0
100
AcDbBlockEnd
  0
BLOCK
  5
3BC
330
3B2
100
AcDbEntity
  8
0
 62
     2
100
AcDbBlockBegin
  2
*D3
 70
     1
 10
0.0
 20
0.0
 30
0.0
  3
*D3
  1

  0
LINE
  5
A1D
330
3B2
100
AcDbEntity
  8
STR
 62
     0
100
AcDbLine
 10
2893.248439566061
 20
1682.83982180681
 30
0.0
 11
3185.018461317849
 21
1682.83982180681
 31
0.0
  0
LINE
  5
A1E
330
3B2
100
AcDbEntity
  8
STR
 62
     0
100
AcDbLine
 10
2929.737231236805
 20
1832.839821806809
 30
0.0
 11
3185.018461317849
 21
1832.839821806809
 31
0.0
  0
LINE
  5
A1F
330
3B2
100
AcDbEntity
  8
STR
 62
     0
100
AcDbLine
 10
3183.768461317848
 20
1712.839821806809
 30
0.0
 11
3183.768461317848
 21
1802.839821806809
 31
0.0
  0
LINE
  5
A20
330
3B2
100
AcDbEntity
  8
STR
 62
     0
100
AcDbLine
 10
3183.768461317848
 20
1832.839821806809
 30
0.0
 11
3183.768461317848
 21
2012.839821806809
 31
0.0
  0
INSERT
  5
A21
330
3B2
100
AcDbEntity
  8
STR
 62
     0
100
AcDbBlockReference
  2
_OPEN30
 10
3183.768461317848
 20
1682.83982180681
 30
0.0
 41
30.0
 42
30.0
 43
30.0
 50
270.0
  0
INSERT
  5
A22
330
3B2
100
AcDbEntity
  8
STR
 62
     0
100
AcDbBlockReference
  2
_OPEN30
 10
3183.768461317848
 20
1832.839821806809
 30
0.0
 41
30.0
 42
30.0
 43
30.0
 50
90.0
  0
MTEXT
  5
A23
330
3B2
100
AcDbEntity
  8
STR
 62
     0
100
AcDbMText
 10
3143.768461317848
 20
1937.839821806809
 30
0.0
 40
60.0
 41
0.0
 71
     5
 72
     1
  1
150
 11
0.0000000000000001
 21
1.0
 31
0.0
1001
ACAD
1000
MTEXTBEGIN
1070
    73
1070
     1
1070
    44
1040
1.0
1070
    74
1070
     0
1000
MTEXTEND
  0
POINT
  5
A24
330
3B2
100
AcDbEntity
  8
DEFPOINTS
 62
     0
100
AcDbPoint
 10
2892.62343956606
 20
1682.83982180681
 30
0.0
  0
POINT
  5
A25
330
3B2
100
AcDbEntity
  8
DEFPOINTS
 62
     0
100
AcDbPoint
 10
2929.112231236805
 20
1832.839821806809
 30
0.0
  0
POINT
  5
A26
330
3B2
100
AcDbEntity
  8
DEFPOINTS
 62
     0
100
AcDbPoint
 10
3183.768461317848
 20
1832.839821806809
 30
0.0
  0
ENDBLK
  5
3BD
330
3B2
100
AcDbEntity
  8
0
 62
     2
100
AcDbBlockEnd
  0
BLOCK
  5
40B
330
401
100
AcDbEntity
  8
0
 62
     2
100
AcDbBlockBegin
  2
*D4
 70
     1
 10
0.0
 20
0.0
 30
0.0
  3
*D4
  1

  0
LINE
  5
A27
330
401
100
AcDbEntity
  8
STR
 62
     0
100
AcDbLine
 10
1158.708443491529
 20
3431.214188658624
 30
0.0
 11
1158.708443491529
 21
4440.42380854612
 31
0.0
  0
LINE
  5
A28
330
401
100
AcDbEntity
  8
STR
 62
     0
100
AcDbLine
 10
2059.708443491529
 20
3731.119428344459
 30
0.0
 11
2059.708443491529
 21
4440.42380854612
 31
0.0
  0
LINE
  5
A29
330
401
100
AcDbEntity
  8
STR
 62
     0
100
AcDbLine
 10
1188.708443491529
 20
4439.173808546121
 30
0.0
 11
2029.708443491529
 21
4439.173808546121
 31
0.0
  0
INSERT
  5
A2A
330
401
100
AcDbEntity
  8
STR
 62
     0
100
AcDbBlockReference
  2
_OPEN30
 10
1158.708443491529
 20
4439.173808546121
 30
0.0
 41
30.0
 42
30.0
 43
30.0
 50
180.0
  0
INSERT
  5
A2B
330
401
100
AcDbEntity
  8
STR
 62
     0
100
AcDbBlockReference
  2
_OPEN30
 10
2059.708443491529
 20
4439.173808546121
 30
0.0
 41
30.0
 42
30.0
 43
30.0
  0
MTEXT
  5
A2C
330
401
100
AcDbEntity
  8
STR
 62
     0
100
AcDbMText
 10
1609.208443491529
 20
4479.173808546121
 30
0.0
 40
60.0
 41
0.0
 71
     5
 72
     1
  1
901
1001
ACAD
1000
MTEXTBEGIN
1070
    73
1070
     1
1070
    44
1040
1.0
1070
    74
1070
     0
1000
MTEXTEND
  0
POINT
  5
A2D
330
401
100
AcDbEntity
  8
DEFPOINTS
 62
     0
100
AcDbPoint
 10
1158.708443491529
 20
3430.589188658624
 30
0.0
  0
POINT
  5
A2E
330
401
100
AcDbEntity
  8
DEFPOINTS
 62
     0
100
AcDbPoint
 10
2059.708443491529
 20
3730.494428344459
 30
0.0
  0
POINT
  5
A2F
330
401
100
AcDbEntity
  8
DEFPOINTS
 62
     0
100
AcDbPoint
 10
2059.708443491529
 20
4439.173808546121
 30
0.0
  0
ENDBLK
  5
40C
330
401
100
AcDbEntity
  8
0
 62
     2
100
AcDbBlockEnd
  0
BLOCK
  5
423
330
419
100
AcDbEntity
  8
0
 62
     2
100
AcDbBlockBegin
  2
*D5
 70
     1
 10
0.0
 20
0.0
 30
0.0
  3
*D5
  1

  0
LINE
  5
A30
330
419
100
AcDbEntity
  8
STR
 62
     0
100
AcDbLine
 10
1158.708443491529
 20
3431.839188658624
 30
0.0
 11
1158.708443491529
 21
4264.378908738307
 31
0.0
  0
LINE
  5
A31
330
419
100
AcDbEntity
  8
STR
 62
     0
100
AcDbLine
 10
1623.70844349153
 20
3700.307063831799
 30
0.0
 11
1623.70844349153
 21
4264.378908738307
 31
0.0
  0
LINE
  5
A32
330
419
100
AcDbEntity
  8
STR
 62
     0
100
AcDbLine
 10
1188.708443491529
 20
4263.128908738307
 30
0.0
 11
1593.70844349153
 21
4263.128908738307
 31
0.0
  0
INSERT
  5
A33
330
419
100
AcDbEntity
  8
STR
 62
     0
100
AcDbBlockReference
  2
_OPEN30
 10
1158.708443491529
 20
4263.128908738307
 30
0.0
 41
30.0
 42
30.0
 43
30.0
 50
180.0
  0
INSERT
  5
A34
330
419
100
AcDbEntity
  8
STR
 62
     0
100
AcDbBlockReference
  2
_OPEN30
 10
1623.70844349153
 20
4263.128908738307
 30
0.0
 41
30.0
 42
30.0
 43
30.0
  0
MTEXT
  5
A35
330
419
100
AcDbEntity
  8
STR
 62
     0
100
AcDbMText
 10
1391.208443491529
 20
4303.128908738307
 30
0.0
 40
60.0
 41
0.0
 71
     5
 72
     1
  1
465
1001
ACAD
1000
MTEXTBEGIN
1070
    73
1070
     1
1070
    44
1040
1.0
1070
    74
1070
     0
1000
MTEXTEND
  0
POINT
  5
A36
330
419
100
AcDbEntity
  8
DEFPOINTS
 62
     0
100
AcDbPoint
 10
1158.708443491529
 20
3431.214188658624
 30
0.0
  0
POINT
  5
A37
330
419
100
AcDbEntity
  8
DEFPOINTS
 62
     0
100
AcDbPoint
 10
1623.70844349153
 20
3699.682063831799
 30
0.0
  0
POINT
  5
A38
330
419
100
AcDbEntity
  8
DEFPOINTS
 62
     0
100
AcDbPoint
 10
1623.70844349153
 20
4263.128908738307
 30
0.0
  0
ENDBLK
  5
424
330
419
100
AcDbEntity
  8
0
 62
     2
100
AcDbBlockEnd
  0
BLOCK
  5
430
330
426
100
AcDbEntity
  8
0
 62
     2
100
AcDbBlockBegin
  2
*D6
 70
     1
 10
0.0
 20
0.0
 30
0.0
  3
*D6
  1

  0
LINE
  5
AD8
330
426
100
AcDbEntity
  8
STR
 62
     0
100
AcDbLine
 10
1623.70844349153
 20
3700.307063831799
 30
0.0
 11
1623.70844349153
 21
4264.378908738307
 31
0.0
  0
LINE
  5
AD9
330
426
100
AcDbEntity
  8
STR
 62
     0
100
AcDbLine
 10
2059.708443491529
 20
3731.119428344459
 30
0.0
 11
2059.708443491529
 21
4264.378908738307
 31
0.0
  0
LINE
  5
ADA
330
426
100
AcDbEntity
  8
STR
 62
     0
100
AcDbLine
 10
1653.708443491529
 20
4263.128908738307
 30
0.0
 11
2029.708443491529
 21
4263.128908738307
 31
0.0
  0
INSERT
  5
ADB
330
426
100
AcDbEntity
  8
STR
 62
     0
100
AcDbBlockReference
  2
_OPEN30
 10
1623.70844349153
 20
4263.128908738307
 30
0.0
 41
30.0
 42
30.0
 43
30.0
 50
180.0
  0
INSERT
  5
ADC
330
426
100
AcDbEntity
  8
STR
 62
     0
100
AcDbBlockReference
  2
_OPEN30
 10
2059.708443491529
 20
4263.128908738307
 30
0.0
 41
30.0
 42
30.0
 43
30.0
  0
MTEXT
  5
ADD
330
426
100
AcDbEntity
  8
STR
 62
     0
100
AcDbMText
 10
1841.708443491529
 20
4303.128908738307
 30
0.0
 40
60.0
 41
0.0
 71
     5
 72
     1
  1
436
1001
ACAD
1000
MTEXTBEGIN
1070
    73
1070
     1
1070
    44
1040
1.0
1070
    74
1070
     0
1000
MTEXTEND
  0
POINT
  5
ADE
330
426
100
AcDbEntity
  8
DEFPOINTS
 62
     0
100
AcDbPoint
 10
1623.70844349153
 20
3699.682063831799
 30
0.0
  0
POINT
  5
ADF
330
426
100
AcDbEntity
  8
DEFPOINTS
 62
     0
100
AcDbPoint
 10
2059.708443491529
 20
3730.494428344459
 30
0.0
  0
POINT
  5
AE0
330
426
100
AcDbEntity
  8
DEFPOINTS
 62
     0
100
AcDbPoint
 10
2059.708443491529
 20
4263.128908738307
 30
0.0
  0
ENDBLK
  5
431
330
426
100
AcDbEntity
  8
0
 62
     2
100
AcDbBlockEnd
  0
BLOCK
  5
43D
330
433
100
AcDbEntity
  8
0
 62
     2
100
AcDbBlockBegin
  2
*D7
 70
     1
 10
0.0
 20
0.0
 30
0.0
  3
*D7
  1

  0
LINE
  5
A42
330
433
100
AcDbEntity
  8
STR
 62
     0
100
AcDbLine
 10
1689.181682489658
 20
1627.164299014923
 30
0.0
 11
1689.181682489658
 21
1200.367954598888
 31
0.0
  0
LINE
  5
A43
330
433
100
AcDbEntity
  8
STR
 62
     0
100
AcDbLine
 10
2819.181682489658
 20
1627.164299014923
 30
0.0
 11
2819.181682489658
 21
1200.367954598888
 31
0.0
  0
LINE
  5
A44
330
433
100
AcDbEntity
  8
STR
 62
     0
100
AcDbLine
 10
1719.181682489658
 20
1201.617954598888
 30
0.0
 11
2789.181682489658
 21
1201.617954598888
 31
0.0
  0
INSERT
  5
A45
330
433
100
AcDbEntity
  8
STR
 62
     0
100
AcDbBlockReference
  2
_OPEN30
 10
1689.181682489658
 20
1201.617954598888
 30
0.0
 41
30.0
 42
30.0
 43
30.0
 50
180.0
  0
INSERT
  5
A46
330
433
100
AcDbEntity
  8
STR
 62
     0
100
AcDbBlockReference
  2
_OPEN30
 10
2819.181682489658
 20
1201.617954598888
 30
0.0
 41
30.0
 42
30.0
 43
30.0
  0
MTEXT
  5
A47
330
433
100
AcDbEntity
  8
STR
 62
     0
100
AcDbMText
 10
2254.181682489658
 20
1241.617954598888
 30
0.0
 40
60.0
 41
0.0
 71
     5
 72
     1
  1
ＭＩＮ1130
1001
ACAD
1000
MTEXTBEGIN
1070
    73
1070
     1
1070
    44
1040
1.0
1070
    74
1070
     0
1000
MTEXTEND
  0
POINT
  5
A48
330
433
100
AcDbEntity
  8
DEFPOINTS
 62
     0
100
AcDbPoint
 10
1689.181682489658
 20
1627.789299014924
 30
0.0
  0
POINT
  5
A49
330
433
100
AcDbEntity
  8
DEFPOINTS
 62
     0
100
AcDbPoint
 10
2819.181682489658
 20
1627.789299014924
 30
0.0
  0
POINT
  5
A4A
330
433
100
AcDbEntity
  8
DEFPOINTS
 62
     0
100
AcDbPoint
 10
2819.181682489658
 20
1201.617954598888
 30
0.0
  0
ENDBLK
  5
43E
330
433
100
AcDbEntity
  8
0
 62
     2
100
AcDbBlockEnd
  0
BLOCK
  5
481
330
477
100
AcDbEntity
  8
0
 62
     2
100
AcDbBlockBegin
  2
*D8
 70
     1
 10
0.0
 20
0.0
 30
0.0
  3
*D8
  1

  0
LINE
  5
A4B
330
477
100
AcDbEntity
  8
STR
 62
     0
100
AcDbLine
 10
2885.217941395536
 20
6187.588656294197
 30
0.0
 11
3087.676038146472
 21
6187.588656294197
 31
0.0
  0
LINE
  5
A4C
330
477
100
AcDbEntity
  8
STR
 62
     0
100
AcDbLine
 10
2885.217941395536
 20
5057.58867141662
 30
0.0
 11
3087.676038146471
 21
5057.58867141662
 31
0.0
  0
LINE
  5
A4D
330
477
100
AcDbEntity
  8
STR
 62
     0
100
AcDbLine
 10
3086.426038146472
 20
6157.588656294197
 30
0.0
 11
3086.426038146471
 21
5087.58867141662
 31
0.0
  0
INSERT
  5
A4E
330
477
100
AcDbEntity
  8
STR
 62
     0
100
AcDbBlockReference
  2
_OPEN30
 10
3086.426038146472
 20
6187.588656294197
 30
0.0
 41
30.0
 42
30.0
 43
30.0
 50
90.0
  0
INSERT
  5
A4F
330
477
100
AcDbEntity
  8
STR
 62
     0
100
AcDbBlockReference
  2
_OPEN30
 10
3086.426038146471
 20
5057.58867141662
 30
0.0
 41
30.0
 42
30.0
 43
30.0
 50
270.0
  0
MTEXT
  5
A50
330
477
100
AcDbEntity
  8
STR
 62
     0
100
AcDbMText
 10
3046.426038146471
 20
5622.58866385541
 30
0.0
 40
60.0
 41
0.0
 71
     5
 72
     1
  1
ＭＩＮ1130
 11
0.0000000000000001
 21
1.0
 31
0.0
1001
ACAD
1000
MTEXTBEGIN
1070
    73
1070
     1
1070
    44
1040
1.0
1070
    74
1070
     0
1000
MTEXTEND
  0
POINT
  5
A51
330
477
100
AcDbEntity
  8
DEFPOINTS
 62
     0
100
AcDbPoint
 10
2884.592941395536
 20
6187.588656294197
 30
0.0
  0
POINT
  5
A52
330
477
100
AcDbEntity
  8
DEFPOINTS
 62
     0
100
AcDbPoint
 10
2884.592941395536
 20
5057.58867141662
 30
0.0
  0
POINT
  5
A53
330
477
100
AcDbEntity
  8
DEFPOINTS
 62
     0
100
AcDbPoint
 10
3086.426038146471
 20
5057.58867141662
 30
0.0
  0
ENDBLK
  5
482
330
477
100
AcDbEntity
  8
0
 62
     2
100
AcDbBlockEnd
  0
BLOCK
  5
499
330
48F
100
AcDbEntity
  8
0
 62
     2
100
AcDbBlockBegin
  2
*D9
 70
     1
 10
0.0
 20
0.0
 30
0.0
  3
*D9
  1

  0
LINE
  5
A54
330
48F
100
AcDbEntity
  8
STR
 62
     0
100
AcDbLine
 10
1689.181697612087
 20
4990.326453108302
 30
0.0
 11
1689.181697612087
 21
4771.030386811516
 31
0.0
  0
LINE
  5
A55
330
48F
100
AcDbEntity
  8
STR
 62
     0
100
AcDbLine
 10
2819.181682489658
 20
4990.326453108302
 30
0.0
 11
2819.181682489658
 21
4771.030386811516
 31
0.0
  0
LINE
  5
A56
330
48F
100
AcDbEntity
  8
STR
 62
     0
100
AcDbLine
 10
1719.181697612087
 20
4772.280386811516
 30
0.0
 11
2789.181682489658
 21
4772.280386811516
 31
0.0
  0
INSERT
  5
A57
330
48F
100
AcDbEntity
  8
STR
 62
     0
100
AcDbBlockReference
  2
_OPEN30
 10
1689.181697612087
 20
4772.280386811516
 30
0.0
 41
30.0
 42
30.0
 43
30.0
 50
180.0
  0
INSERT
  5
A58
330
48F
100
AcDbEntity
  8
STR
 62
     0
100
AcDbBlockReference
  2
_OPEN30
 10
2819.181682489658
 20
4772.280386811516
 30
0.0
 41
30.0
 42
30.0
 43
30.0
  0
MTEXT
  5
A59
330
48F
100
AcDbEntity
  8
STR
 62
     0
100
AcDbMText
 10
2254.181690050873
 20
4812.280386811516
 30
0.0
 40
60.0
 41
0.0
 71
     5
 72
     1
  1
ＭＩＮ1130
1001
ACAD
1000
MTEXTBEGIN
1070
    73
1070
     1
1070
    44
1040
1.0
1070
    74
1070
     0
1000
MTEXTEND
  0
POINT
  5
A5A
330
48F
100
AcDbEntity
  8
DEFPOINTS
 62
     0
100
AcDbPoint
 10
1689.181697612087
 20
4990.951453108301
 30
0.0
  0
POINT
  5
A5B
330
48F
100
AcDbEntity
  8
DEFPOINTS
 62
     0
100
AcDbPoint
 10
2819.181682489658
 20
4990.951453108301
 30
0.0
  0
POINT
  5
A5C
330
48F
100
AcDbEntity
  8
DEFPOINTS
 62
     0
100
AcDbPoint
 10
2819.181682489658
 20
4772.280386811516
 30
0.0
  0
ENDBLK
  5
49A
330
48F
100
AcDbEntity
  8
0
 62
     2
100
AcDbBlockEnd
  0
BLOCK
  5
57A
330
570
100
AcDbEntity
  8
0
 62
     2
100
AcDbBlockBegin
  2
*D10
 70
     1
 10
0.0
 20
0.0
 30
0.0
  3
*D10
  1

  0
LINE
  5
A5D
330
570
100
AcDbEntity
  8
STR
 62
     0
100
AcDbLine
 10
1689.181682489658
 20
1626.539299014924
 30
0.0
 11
1689.181682489658
 21
1085.426257843969
 31
0.0
  0
LINE
  5
A5E
330
570
100
AcDbEntity
  8
STR
 62
     0
100
AcDbLine
 10
2819.181682489658
 20
1626.539299014924
 30
0.0
 11
2819.181682489658
 21
1085.426257843969
 31
0.0
  0
LINE
  5
A5F
330
570
100
AcDbEntity
  8
STR
 62
     0
100
AcDbLine
 10
1719.181682489658
 20
1086.676257843969
 30
0.0
 11
2789.181682489658
 21
1086.676257843969
 31
0.0
  0
INSERT
  5
A60
330
570
100
AcDbEntity
  8
STR
 62
     0
100
AcDbBlockReference
  2
_OPEN30
 10
1689.181682489658
 20
1086.676257843969
 30
0.0
 41
30.0
 42
30.0
 43
30.0
 50
180.0
  0
INSERT
  5
A61
330
570
100
AcDbEntity
  8
STR
 62
     0
100
AcDbBlockReference
  2
_OPEN30
 10
2819.181682489658
 20
1086.676257843969
 30
0.0
 41
30.0
 42
30.0
 43
30.0
  0
MTEXT
  5
A62
330
570
100
AcDbEntity
  8
STR
 62
     0
100
AcDbMText
 10
2254.181682489658
 20
1126.676257843969
 30
0.0
 40
60.0
 41
0.0
 71
     5
 72
     1
  1
ＭＡＸ1560
1001
ACAD
1000
MTEXTBEGIN
1070
    73
1070
     1
1070
    44
1040
1.0
1070
    74
1070
     0
1000
MTEXTEND
  0
POINT
  5
A63
330
570
100
AcDbEntity
  8
DEFPOINTS
 62
     0
100
AcDbPoint
 10
1689.181682489658
 20
1627.164299014923
 30
0.0
  0
POINT
  5
A64
330
570
100
AcDbEntity
  8
DEFPOINTS
 62
     0
100
AcDbPoint
 10
2819.181682489658
 20
1627.164299014923
 30
0.0
  0
POINT
  5
A65
330
570
100
AcDbEntity
  8
DEFPOINTS
 62
     0
100
AcDbPoint
 10
2819.181682489658
 20
1086.676257843969
 30
0.0
  0
ENDBLK
  5
57B
330
570
100
AcDbEntity
  8
0
 62
     2
100
AcDbBlockEnd
  0
BLOCK
  5
839
330
82F
100
AcDbEntity
  8
0
 62
     2
100
AcDbBlockBegin
  2
*D11
 70
     1
 10
0.0
 20
0.0
 30
0.0
  3
*D11
  1

  0
LINE
  5
A66
330
82F
100
AcDbEntity
  8
STR
 62
     0
100
AcDbLine
 10
2885.217941395536
 20
6187.588656294197
 30
0.0
 11
3192.364142510395
 21
6187.588656294197
 31
0.0
  0
LINE
  5
A67
330
82F
100
AcDbEntity
  8
STR
 62
     0
100
AcDbLine
 10
2885.217941395536
 20
5057.58867141662
 30
0.0
 11
3192.364142510395
 21
5057.58867141662
 31
0.0
  0
LINE
  5
A68
330
82F
100
AcDbEntity
  8
STR
 62
     0
100
AcDbLine
 10
3191.114142510395
 20
6157.588656294197
 30
0.0
 11
3191.114142510395
 21
5087.58867141662
 31
0.0
  0
INSERT
  5
A69
330
82F
100
AcDbEntity
  8
STR
 62
     0
100
AcDbBlockReference
  2
_OPEN30
 10
3191.114142510395
 20
6187.588656294197
 30
0.0
 41
30.0
 42
30.0
 43
30.0
 50
90.0
  0
INSERT
  5
A6A
330
82F
100
AcDbEntity
  8
STR
 62
     0
100
AcDbBlockReference
  2
_OPEN30
 10
3191.114142510395
 20
5057.58867141662
 30
0.0
 41
30.0
 42
30.0
 43
30.0
 50
270.0
  0
MTEXT
  5
A6B
330
82F
100
AcDbEntity
  8
STR
 62
     0
100
AcDbMText
 10
3151.114142510394
 20
5622.58866385541
 30
0.0
 40
60.0
 41
0.0
 71
     5
 72
     1
  1
ＭＡＸ1560
 11
0.0000000000000001
 21
1.0
 31
0.0
1001
ACAD
1000
MTEXTBEGIN
1070
    73
1070
     1
1070
    44
1040
1.0
1070
    74
1070
     0
1000
MTEXTEND
  0
POINT
  5
A6C
330
82F
100
AcDbEntity
  8
DEFPOINTS
 62
     0
100
AcDbPoint
 10
2884.592941395536
 20
6187.588656294197
 30
0.0
  0
POINT
  5
A6D
330
82F
100
AcDbEntity
  8
DEFPOINTS
 62
     0
100
AcDbPoint
 10
2884.592941395536
 20
5057.58867141662
 30
0.0
  0
POINT
  5
A6E
330
82F
100
AcDbEntity
  8
DEFPOINTS
 62
     0
100
AcDbPoint
 10
3191.114142510395
 20
5057.58867141662
 30
0.0
  0
ENDBLK
  5
83A
330
82F
100
AcDbEntity
  8
0
 62
     2
100
AcDbBlockEnd
  0
BLOCK
  5
865
330
85B
100
AcDbEntity
  8
0
 62
     2
100
AcDbBlockBegin
  2
*D12
 70
     1
 10
0.0
 20
0.0
 30
0.0
  3
*D12
  1

  0
LINE
  5
A6F
330
85B
100
AcDbEntity
  8
STR
 62
     0
100
AcDbLine
 10
1689.181697612087
 20
4990.326453108302
 30
0.0
 11
1689.181697612087
 21
4673.970196113049
 31
0.0
  0
LINE
  5
A70
330
85B
100
AcDbEntity
  8
STR
 62
     0
100
AcDbLine
 10
2819.181682489658
 20
4990.326453108302
 30
0.0
 11
2819.181682489658
 21
4673.970196113049
 31
0.0
  0
LINE
  5
A71
330
85B
100
AcDbEntity
  8
STR
 62
     0
100
AcDbLine
 10
1719.181697612087
 20
4675.220196113048
 30
0.0
 11
2789.181682489658
 21
4675.220196113048
 31
0.0
  0
INSERT
  5
A72
330
85B
100
AcDbEntity
  8
STR
 62
     0
100
AcDbBlockReference
  2
_OPEN30
 10
1689.181697612087
 20
4675.220196113048
 30
0.0
 41
30.0
 42
30.0
 43
30.0
 50
180.0
  0
INSERT
  5
A73
330
85B
100
AcDbEntity
  8
STR
 62
     0
100
AcDbBlockReference
  2
_OPEN30
 10
2819.181682489658
 20
4675.220196113048
 30
0.0
 41
30.0
 42
30.0
 43
30.0
  0
MTEXT
  5
A74
330
85B
100
AcDbEntity
  8
STR
 62
     0
100
AcDbMText
 10
2254.181690050873
 20
4715.220196113048
 30
0.0
 40
60.0
 41
0.0
 71
     5
 72
     1
  1
ＭＡＸ1560
1001
ACAD
1000
MTEXTBEGIN
1070
    73
1070
     1
1070
    44
1040
1.0
1070
    74
1070
     0
1000
MTEXTEND
  0
POINT
  5
A75
330
85B
100
AcDbEntity
  8
DEFPOINTS
 62
     0
100
AcDbPoint
 10
1689.181697612087
 20
4990.951453108301
 30
0.0
  0
POINT
  5
A76
330
85B
100
AcDbEntity
  8
DEFPOINTS
 62
     0
100
AcDbPoint
 10
2819.181682489658
 20
4990.951453108301
 30
0.0
  0
POINT
  5
A77
330
85B
100
AcDbEntity
  8
DEFPOINTS
 62
     0
100
AcDbPoint
 10
2819.181682489658
 20
4675.220196113048
 30
0.0
  0
ENDBLK
  5
866
330
85B
100
AcDbEntity
  8
0
 62
     2
100
AcDbBlockEnd
  0
ENDSEC
  0
SECTION
  2
ENTITIES
  0
LINE
  5
9B
330
1F
100
AcDbEntity
  8
BMK
100
AcDbLine
 10
2254.181690050873
 20
6112.870627134393
 30
0.0
 11
2254.181690050873
 21
5009.247897219509
 31
0.0
  0
LINE
  5
A7
330
1F
100
AcDbEntity
  8
BMK
100
AcDbLine
 10
1404.24746104051
 20
5622.58866385541
 30
0.0
 11
2900.913336307623
 21
5622.58866385541
 31
0.0
  0
LINE
  5
A8
330
1F
100
AcDbEntity
  8
STR
100
AcDbLine
 10
2011.979037192336
 20
5894.099389071386
 30
0.0
 11
2011.979037192336
 21
5351.077938639431
 31
0.0
  0
LINE
  5
A9
330
1F
100
AcDbEntity
  8
STR
100
AcDbLine
 10
2011.979037192336
 20
5894.099389071386
 30
0.0
 11
2481.115088438664
 21
5894.099389071385
 31
0.0
  0
LINE
  5
AA
330
1F
100
AcDbEntity
  8
STR
100
AcDbLine
 10
2481.115088438664
 20
5894.099389071385
 30
0.0
 11
2481.115088438664
 21
5351.077938639431
 31
0.0
  0
LINE
  5
AB
330
1F
100
AcDbEntity
  8
STR
100
AcDbLine
 10
2011.979037192336
 20
5351.077938639431
 30
0.0
 11
2481.115088438664
 21
5351.077938639431
 31
0.0
  0
LINE
  5
C6
330
1F
100
AcDbEntity
  8
STR
100
AcDbLine
 10
2106.387268751725
 20
5703.521256474817
 30
0.0
 11
1691.318919700262
 21
6118.589605526281
 31
0.0
  0
LINE
  5
C7
330
1F
100
AcDbEntity
  8
STR
100
AcDbLine
 10
2169.441777775504
 20
5774.190404810515
 30
0.0
 11
1758.18074838
 21
6185.451434206019
 31
0.0
  0
LINE
  5
CC
330
1F
100
AcDbEntity
  8
STR
100
AcDbLine
 10
1691.318919700262
 20
6118.589605526281
 30
0.0
 11
1758.18074838
 21
6185.451434206019
 31
0.0
  0
LINE
  5
CD
330
1F
100
AcDbEntity
  8
BMK
100
AcDbLine
 10
1683.651110310332
 20
6005.438320149369
 30
0.0
 11
1884.872872837086
 21
6206.660082676123
 31
0.0
  0
CIRCLE
  5
CE
330
1F
100
AcDbEntity
  8
STR
100
AcDbCircle
 10
1777.491572033622
 20
6099.27878187266
 30
0.0
 40
88.30987442153528
  0
CIRCLE
  5
CF
330
1F
100
AcDbEntity
  8
STR
100
AcDbCircle
 10
1777.491572033622
 20
5145.898545838157
 30
0.0
 40
88.30987442153528
  0
LINE
  5
D0
330
1F
100
AcDbEntity
  8
BMK
100
AcDbLine
 10
1871.332033756912
 20
5052.058084114868
 30
0.0
 11
1670.110271230158
 21
5253.279846641621
 31
0.0
  0
LINE
  5
D1
330
1F
100
AcDbEntity
  8
STR
100
AcDbLine
 10
1758.18074838
 20
5059.725893504799
 30
0.0
 11
1691.318919700262
 21
5126.587722184538
 31
0.0
  0
LINE
  5
D2
330
1F
100
AcDbEntity
  8
STR
100
AcDbLine
 10
2106.387268751725
 20
5541.656071236001
 30
0.0
 11
1691.318919700262
 21
5126.587722184538
 31
0.0
  0
LINE
  5
D3
330
1F
100
AcDbEntity
  8
STR
100
AcDbLine
 10
2155.902085989594
 20
5457.44723111439
 30
0.0
 11
1758.18074838
 21
5059.725893504799
 31
0.0
  0
CIRCLE
  5
D5
330
1F
100
AcDbEntity
  8
STR
100
AcDbCircle
 10
2730.871808068124
 20
6099.27878187266
 30
0.0
 40
88.30987442153528
  0
LINE
  5
D6
330
1F
100
AcDbEntity
  8
BMK
100
AcDbLine
 10
2824.712269791413
 20
6005.438320149369
 30
0.0
 11
2623.490507264659
 21
6206.660082676123
 31
0.0
  0
LINE
  5
D7
330
1F
100
AcDbEntity
  8
STR
100
AcDbLine
 10
2817.044460401483
 20
6118.589605526281
 30
0.0
 11
2750.182631721744
 21
6185.451434206019
 31
0.0
  0
LINE
  5
D8
330
1F
100
AcDbEntity
  8
STR
100
AcDbLine
 10
2338.92160232624
 20
5774.190404810515
 30
0.0
 11
2750.182631721744
 21
6185.451434206019
 31
0.0
  0
LINE
  5
D9
330
1F
100
AcDbEntity
  8
STR
100
AcDbLine
 10
2423.13044244785
 20
5724.675587572647
 30
0.0
 11
2817.044460401483
 21
6118.589605526281
 31
0.0
  0
LINE
  5
DC
330
1F
100
AcDbEntity
  8
STR
100
AcDbLine
 10
2352.461294112151
 20
5457.44723111439
 30
0.0
 11
2750.182631721745
 21
5059.725893504799
 31
0.0
  0
LINE
  5
DD
330
1F
100
AcDbEntity
  8
STR
100
AcDbLine
 10
2423.13044244785
 20
5520.50174013817
 30
0.0
 11
2817.044460401483
 21
5126.587722184538
 31
0.0
  0
LINE
  5
DE
330
1F
100
AcDbEntity
  8
STR
100
AcDbLine
 10
2750.182631721745
 20
5059.725893504799
 30
0.0
 11
2817.044460401483
 21
5126.587722184538
 31
0.0
  0
LINE
  5
DF
330
1F
100
AcDbEntity
  8
BMK
100
AcDbLine
 10
2630.260926804746
 20
5045.287664574781
 30
0.0
 11
2831.4826893315
 21
5246.509427101536
 31
0.0
  0
CIRCLE
  5
E0
330
1F
100
AcDbEntity
  8
STR
100
AcDbCircle
 10
2730.871808068124
 20
5145.898545838157
 30
0.0
 40
88.30987442153528
  0
LINE
  5
E7
330
1F
100
AcDbEntity
  8
STR
100
AcDbLine
 10
1876.900779656222
 20
5783.458996433314
 30
0.0
 11
1876.900779656222
 21
5461.718331277503
 31
0.0
  0
LINE
  5
103
330
1F
100
AcDbEntity
  8
STR
100
AcDbLine
 10
1876.900779656222
 20
5783.458996433312
 30
0.0
 11
1889.042385532327
 21
5783.458996433312
 31
0.0
  0
LINE
  5
104
330
1F
100
AcDbEntity
  8
STR
100
AcDbLine
 10
1876.900779656222
 20
5461.718331277503
 30
0.0
 11
1889.042385532327
 21
5461.718331277503
 31
0.0
  0
LINE
  5
111
330
1F
100
AcDbEntity
  8
STR
100
AcDbLine
 10
1889.042385532327
 20
5853.992025455088
 30
0.0
 11
1889.042385532327
 21
5391.185302255729
 31
0.0
  0
LINE
  5
112
330
1F
100
AcDbEntity
  8
STR
100
AcDbLine
 10
1889.042385532327
 20
5391.185302255729
 30
0.0
 11
1983.842177559951
 21
5391.185302255729
 31
0.0
  0
LINE
  5
113
330
1F
100
AcDbEntity
  8
STR
100
AcDbLine
 10
1983.842177559951
 20
5391.185302255729
 30
0.0
 11
1983.842177559951
 21
5853.992025455088
 31
0.0
  0
LINE
  5
114
330
1F
100
AcDbEntity
  8
STR
100
AcDbLine
 10
1889.042385532327
 20
5853.992025455088
 30
0.0
 11
1983.842177559951
 21
5853.992025455088
 31
0.0
  0
LINE
  5
116
330
1F
100
AcDbEntity
  8
STR
100
AcDbLine
 10
2029.212637126321
 20
5511.563926520417
 30
0.0
 11
2029.212637126321
 21
5733.6134011904
 31
0.0
  0
LINE
  5
117
330
1F
100
AcDbEntity
  8
STR
100
AcDbLine
 10
2029.212637126321
 20
5733.6134011904
 30
0.0
 11
1983.842177559951
 21
5733.6134011904
 31
0.0
  0
LINE
  5
118
330
1F
100
AcDbEntity
  8
STR
100
AcDbLine
 10
2029.212637126321
 20
5511.563926520417
 30
0.0
 11
1983.842177559951
 21
5511.563926520417
 31
0.0
  0
LINE
  5
119
330
1F
100
AcDbEntity
  8
STR
100
AcDbLine
 10
1983.842177559951
 20
5511.563926520417
 30
0.0
 11
1983.842177559951
 21
5733.6134011904
 31
0.0
  0
LINE
  5
11A
330
1F
100
AcDbEntity
  8
STR
100
AcDbLine
 10
2029.212637126321
 20
5688.139778456505
 30
0.0
 11
2029.212637126321
 21
5557.037549254312
 31
0.0
  0
LINE
  5
11B
330
1F
100
AcDbEntity
  8
STR
100
AcDbLine
 10
2029.212637126321
 20
5557.037549254312
 30
0.0
 11
2319.931825151279
 21
5557.037549254312
 31
0.0
  0
LINE
  5
11C
330
1F
100
AcDbEntity
  8
STR
100
AcDbLine
 10
2319.931825151279
 20
5557.037549254312
 30
0.0
 11
2319.931825151279
 21
5688.139778456505
 31
0.0
  0
LINE
  5
11D
330
1F
100
AcDbEntity
  8
STR
100
AcDbLine
 10
2319.931825151279
 20
5688.139778456505
 30
0.0
 11
2029.212637126321
 21
5688.139778456505
 31
0.0
  0
LINE
  5
15C
330
1F
100
AcDbEntity
  8
BMK
100
AcDbLine
 10
1623.708443491529
 20
1383.25889318262
 30
0.0
 11
1623.708443491529
 21
4113.189956920228
 31
0.0
  0
LINE
  5
16D
330
1F
100
AcDbEntity
  8
STR
100
AcDbLine
 10
2002.762319427191
 20
1806.654931353615
 30
0.0
 11
1689.181682489658
 21
1806.654931353615
 31
0.0
  0
LINE
  5
16E
330
1F
100
AcDbEntity
  8
STR
100
AcDbLine
 10
1689.181682489658
 20
1806.654931353615
 30
0.0
 11
1689.181682489658
 21
1724.289481671733
 31
0.0
  0
LINE
  5
16F
330
1F
100
AcDbEntity
  8
STR
100
AcDbLine
 10
1689.181682489658
 20
1724.289481671733
 30
0.0
 11
2002.762319427191
 21
1724.289481671733
 31
0.0
  0
LINE
  5
171
330
1F
100
AcDbEntity
  8
BMK
100
AcDbLine
 10
2254.181682489658
 20
3590.966999227836
 30
0.0
 11
2254.181682489658
 21
1414.651550965146
 31
0.0
  0
LINE
  5
173
330
1F
100
AcDbEntity
  8
STR
100
AcDbLine
 10
2819.181682489658
 20
1806.654931353615
 30
0.0
 11
2819.181682489658
 21
1724.289481671733
 31
0.0
  0
LINE
  5
174
330
1F
100
AcDbEntity
  8
STR
100
AcDbLine
 10
2819.181682489658
 20
1724.289481671733
 30
0.0
 11
2505.601045552124
 21
1724.289481671733
 31
0.0
  0
LINE
  5
175
330
1F
100
AcDbEntity
  8
STR
100
AcDbLine
 10
2505.601045552124
 20
1806.654931353615
 30
0.0
 11
2819.181682489658
 21
1806.654931353615
 31
0.0
  0
LINE
  5
177
330
1F
100
AcDbEntity
  8
STR
100
AcDbLine
 10
2150.786066259827
 20
1846.726447773741
 30
0.0
 11
2357.577298719489
 21
1846.726447773741
 31
0.0
  0
LINE
  5
178
330
1F
100
AcDbEntity
  8
STR
100
AcDbLine
 10
2357.577298719489
 20
1846.726447773741
 30
0.0
 11
2357.577298719489
 21
2034.137944229449
 31
0.0
  0
LINE
  5
179
330
1F
100
AcDbEntity
  8
STR
100
AcDbLine
 10
2150.786066259827
 20
1846.726447773741
 30
0.0
 11
2150.786066259827
 21
2034.137944229449
 31
0.0
  0
LINE
  5
17A
330
1F
100
AcDbEntity
  8
BMK
100
AcDbLine
 10
2005.355772421804
 20
2034.137944229449
 30
0.0
 11
2503.007592557511
 21
2034.137944229449
 31
0.0
  0
ARC
  5
17B
330
1F
100
AcDbEntity
  8
STR
100
AcDbCircle
 10
2254.181682489658
 20
2034.137944229449
 30
0.0
 40
103.3956162298309
100
AcDbArc
 50
0.0
 51
180.0
  0
CIRCLE
  5
17D
330
1F
100
AcDbEntity
  8
STR
100
AcDbCircle
 10
2254.181682489658
 20
2034.137944229449
 30
0.0
 40
46.82761579374123
  0
LINE
  5
17E
330
1F
100
AcDbEntity
  8
STR
100
AcDbLine
 10
2611.513034740336
 20
1785.14851814341
 30
0.0
 11
2008.846603818864
 21
3012.812214825836
 31
0.0
  0
LINE
  5
17F
330
1F
100
AcDbEntity
  8
STR
100
AcDbLine
 10
2287.045524612248
 20
2574.871578088364
 30
0.0
 11
2454.64315707429
 21
2240.8964331327
 31
0.0
  0
LINE
  5
181
330
1F
100
AcDbEntity
  8
STR
100
AcDbLine
 10
2185.172478726828
 20
2524.861575237602
 30
0.0
 11
2346.891707381046
 21
2188.000691580084
 31
0.0
  0
LINE
  5
182
330
1F
100
AcDbEntity
  8
STR
100
AcDbLine
 10
2185.172478726828
 20
2524.861575237602
 30
0.0
 11
2287.045524612248
 21
2574.871578088364
 31
0.0
  0
LINE
  5
183
330
1F
100
AcDbEntity
  8
STR
100
AcDbLine
 10
2346.891707381046
 20
2188.000691580084
 30
0.0
 11
2454.64315707429
 21
2240.8964331327
 31
0.0
  0
LINE
  5
18F
330
1F
100
AcDbEntity
  8
STR
100
AcDbLine
 10
2249.964894970048
 20
2475.140919063489
 30
0.0
 11
2348.334749780913
 21
2270.236675501322
 31
0.0
  0
LINE
  5
190
330
1F
100
AcDbEntity
  8
STR
100
AcDbLine
 10
2286.753839424269
 20
2493.200801351699
 30
0.0
 11
2388.699383619182
 21
2290.051882122241
 31
0.0
  0
LINE
  5
191
330
1F
100
AcDbEntity
  8
STR
100
AcDbLine
 10
2249.964894970048
 20
2475.140919063489
 30
0.0
 11
2286.753839424269
 21
2493.200801351699
 31
0.0
  0
LINE
  5
193
330
1F
100
AcDbEntity
  8
STR
100
AcDbLine
 10
2348.334749780913
 20
2270.236675501322
 30
0.0
 11
2388.699383619182
 21
2290.051882122241
 31
0.0
  0
LINE
  5
195
330
1F
100
AcDbEntity
  8
BMK
100
AcDbLine
 10
1992.276874324605
 20
2911.707975031092
 30
0.0
 11
2134.920549974665
 21
2911.707975031092
 31
0.0
  0
LINE
  5
196
330
1F
100
AcDbEntity
  8
STR
100
AcDbLine
 10
1440.015350654269
 20
3072.616955519332
 30
0.0
 11
1440.015350654269
 21
1512.475166774703
 31
0.0
  0
LINE
  5
197
330
1F
100
AcDbEntity
  8
STR
100
AcDbLine
 10
1440.015350654269
 20
1512.475166774703
 30
0.0
 11
1807.401536328778
 21
1512.475166774703
 31
0.0
  0
LINE
  5
19A
330
1F
100
AcDbEntity
  8
STR
100
AcDbLine
 10
2059.708443491529
 20
1927.459072046556
 30
0.0
 11
2059.708443491529
 21
3682.839821806809
 31
0.0
  0
LINE
  5
19B
330
1F
100
AcDbEntity
  8
STR
100
AcDbLine
 10
2059.708443491529
 20
3682.839821806809
 30
0.0
 11
1936.055671792617
 21
3682.839821806809
 31
0.0
  0
LINE
  5
19C
330
1F
100
AcDbEntity
  8
STR
100
AcDbLine
 10
1936.055671792617
 20
3682.839821806809
 30
0.0
 11
1936.055671792617
 21
3612.050664620204
 31
0.0
  0
LINE
  5
19D
330
1F
100
AcDbEntity
  8
STR
100
AcDbLine
 10
1957.832062250473
 20
1927.459072046556
 30
0.0
 11
2150.786066259827
 21
1927.459072046556
 31
0.0
  0
LINE
  5
19E
330
1F
100
AcDbEntity
  8
STR
100
AcDbLine
 10
2254.181682489658
 20
2137.53356045928
 30
0.0
 11
1957.832062250473
 21
2137.53356045928
 31
0.0
  0
LINE
  5
1E5
330
1F
100
AcDbEntity
  8
STR
100
AcDbLine
 10
2568.290515031844
 20
1787.295804944852
 30
0.0
 11
2568.290515031844
 21
1970.635278223961
 31
0.0
  0
LINE
  5
1E6
330
1F
100
AcDbEntity
  8
STR
100
AcDbLine
 10
2767.561461945246
 20
1918.432908091858
 30
0.0
 11
2767.561461945246
 21
1667.461519854616
 31
0.0
  0
LINE
  5
1E7
330
1F
100
AcDbEntity
  8
STR
100
AcDbLine
 10
2519.386038600493
 20
1806.654931353615
 30
0.0
 11
2519.386038600493
 21
1876.928430388095
 31
0.0
  0
LINE
  5
1E8
330
1F
100
AcDbEntity
  8
STR
100
AcDbLine
 10
2617.194991463195
 20
1806.654931353615
 30
0.0
 11
2617.194991463196
 21
1876.928430388095
 31
0.0
  0
LINE
  5
1E9
330
1F
100
AcDbEntity
  8
STR
100
AcDbLine
 10
2488.005671422476
 20
1875.298749652413
 30
0.0
 11
2648.575358641213
 21
1875.298749652413
 31
0.0
  0
LINE
  5
1EA
330
1F
100
AcDbEntity
  8
STR
100
AcDbLine
 10
2511.517769771268
 20
1917.423034175795
 30
0.0
 11
2625.063260292421
 21
1917.423034175795
 31
0.0
  0
LINE
  5
1EB
330
1F
100
AcDbEntity
  8
STR
100
AcDbLine
 10
2710.788716684669
 20
1706.179186335315
 30
0.0
 11
2824.334207205822
 21
1706.179186335315
 31
0.0
  0
LINE
  5
1EC
330
1F
100
AcDbEntity
  8
STR
100
AcDbLine
 10
2682.005368395599
 20
1682.839821806809
 30
0.0
 11
2842.575055614335
 21
1682.839821806809
 31
0.0
  0
LINE
  5
1ED
330
1F
100
AcDbEntity
  8
STR
100
AcDbLine
 10
1423.603510213829
 20
3131.514290439382
 30
0.0
 11
1823.81337676923
 21
3131.514290439382
 31
0.0
  0
LINE
  5
1EE
330
1F
100
AcDbEntity
  8
STR
100
AcDbLine
 10
1823.81337676923
 20
3131.514290439382
 30
0.0
 11
1823.81337676923
 21
3072.616955519333
 31
0.0
  0
LINE
  5
1EF
330
1F
100
AcDbEntity
  8
STR
100
AcDbLine
 10
1823.81337676923
 20
3072.616955519333
 30
0.0
 11
1423.603510213828
 21
3072.616955519332
 31
0.0
  0
LINE
  5
1F0
330
1F
100
AcDbEntity
  8
STR
100
AcDbLine
 10
1423.603510213829
 20
3131.514290439382
 30
0.0
 11
1423.603510213828
 21
3072.616955519332
 31
0.0
  0
LINE
  5
1F1
330
1F
100
AcDbEntity
  8
STR
100
AcDbLine
 10
1514.514125788661
 20
3180.256941047107
 30
0.0
 11
1732.902761194397
 21
3180.256941047107
 31
0.0
  0
LINE
  5
1F2
330
1F
100
AcDbEntity
  8
STR
100
AcDbLine
 10
1732.902761194397
 20
3180.256941047107
 30
0.0
 11
1732.902761194397
 21
3131.514290439382
 31
0.0
  0
LINE
  5
1F3
330
1F
100
AcDbEntity
  8
STR
100
AcDbLine
 10
1514.514125788661
 20
3180.256941047107
 30
0.0
 11
1514.514125788661
 21
3131.514290439382
 31
0.0
  0
LINE
  5
1F6
330
1F
100
AcDbEntity
  8
STR
100
AcDbLine
 10
1399.027555444155
 20
3369.420995528548
 30
0.0
 11
1848.389331538904
 21
3369.420995528548
 31
0.0
  0
LINE
  5
1F7
330
1F
100
AcDbEntity
  8
STR
100
AcDbLine
 10
1848.389331538904
 20
3369.420995528548
 30
0.0
 11
1848.389331538904
 21
3205.249254520454
 31
0.0
  0
LINE
  5
1F8
330
1F
100
AcDbEntity
  8
STR
100
AcDbLine
 10
1848.389331538904
 20
3205.249254520454
 30
0.0
 11
1399.027555444155
 21
3205.249254520454
 31
0.0
  0
LINE
  5
1F9
330
1F
100
AcDbEntity
  8
STR
100
AcDbLine
 10
1399.027555444155
 20
3205.249254520454
 30
0.0
 11
1399.027555444155
 21
3369.420995528548
 31
0.0
  0
LINE
  5
1FA
330
1F
100
AcDbEntity
  8
STR
100
AcDbLine
 10
1427.659699729848
 20
3369.420995528548
 30
0.0
 11
1427.659699729848
 21
3576.874406598964
 31
0.0
  0
LINE
  5
1FB
330
1F
100
AcDbEntity
  8
STR
100
AcDbLine
 10
1427.659699729848
 20
3576.874406598964
 30
0.0
 11
1559.034599029821
 21
3576.874406598964
 31
0.0
  0
LINE
  5
1FC
330
1F
100
AcDbEntity
  8
STR
100
AcDbLine
 10
1559.034599029821
 20
3576.874406598964
 30
0.0
 11
1559.034599029821
 21
3369.420995528547
 31
0.0
  0
LINE
  5
1FD
330
1F
100
AcDbEntity
  8
STR
100
AcDbLine
 10
1572.203524385217
 20
3682.839821806809
 30
0.0
 11
1572.203524385217
 21
3527.622869213944
 31
0.0
  0
LINE
  5
1FE
330
1F
100
AcDbEntity
  8
STR
100
AcDbLine
 10
1572.203524385217
 20
3527.622869213944
 30
0.0
 11
1675.213362597843
 21
3527.622869213944
 31
0.0
  0
LINE
  5
1FF
330
1F
100
AcDbEntity
  8
STR
100
AcDbLine
 10
1675.213362597843
 20
3527.622869213944
 30
0.0
 11
1675.213362597843
 21
3611.20123797074
 31
0.0
  0
LINE
  5
200
330
1F
100
AcDbEntity
  8
STR
100
AcDbLine
 10
1675.213362597843
 20
3611.20123797074
 30
0.0
 11
1720.000242745652
 21
3611.20123797074
 31
0.0
  0
LINE
  5
201
330
1F
100
AcDbEntity
  8
STR
100
AcDbLine
 10
1720.000242745652
 20
3611.20123797074
 30
0.0
 11
1720.000242745652
 21
3682.839821806809
 31
0.0
  0
LINE
  5
202
330
1F
100
AcDbEntity
  8
STR
100
AcDbLine
 10
1720.000242745652
 20
3682.839821806809
 30
0.0
 11
1572.203524385217
 21
3682.839821806809
 31
0.0
  0
LINE
  5
203
330
1F
100
AcDbEntity
  8
STR
100
AcDbLine
 10
1888.964648488239
 20
3612.050664620204
 30
0.0
 11
1888.964648488239
 21
3061.329040382688
 31
0.0
  0
LINE
  5
204
330
1F
100
AcDbEntity
  8
STR
100
AcDbLine
 10
1888.964648488239
 20
3061.329040382688
 30
0.0
 11
1980.031314037228
 21
3061.329040382688
 31
0.0
  0
LINE
  5
205
330
1F
100
AcDbEntity
  8
STR
100
AcDbLine
 10
1980.031314037228
 20
3061.329040382688
 30
0.0
 11
1980.031314037228
 21
3612.050664620204
 31
0.0
  0
LINE
  5
206
330
1F
100
AcDbEntity
  8
STR
100
AcDbLine
 10
1980.031314037228
 20
3612.050664620204
 30
0.0
 11
1888.964648488239
 21
3612.050664620204
 31
0.0
  0
LINE
  5
207
330
1F
100
AcDbEntity
  8
STR
100
AcDbLine
 10
1819.75718725321
 20
3369.420995528547
 30
0.0
 11
1819.757187253211
 21
3576.874406598963
 31
0.0
  0
LINE
  5
208
330
1F
100
AcDbEntity
  8
STR
100
AcDbLine
 10
1819.757187253211
 20
3576.874406598963
 30
0.0
 11
1688.382287953237
 21
3576.874406598964
 31
0.0
  0
LINE
  5
209
330
1F
100
AcDbEntity
  8
STR
100
AcDbLine
 10
1688.382287953237
 20
3576.874406598964
 30
0.0
 11
1688.382287953237
 21
3369.420995528547
 31
0.0
  0
LINE
  5
20A
330
1F
100
AcDbEntity
  8
STR
100
AcDbLine
 10
1559.034599029821
 20
3436.582185157005
 30
0.0
 11
1688.382287953237
 21
3436.582185157005
 31
0.0
  0
LINE
  5
20C
330
1F
100
AcDbEntity
  8
STR
100
AcDbLine
 10
1577.727232204702
 20
3480.460824355235
 30
0.0
 11
1669.689654778356
 21
3480.460824355235
 31
0.0
  0
LINE
  5
20D
330
1F
100
AcDbEntity
  8
STR
100
AcDbLine
 10
1577.727232204702
 20
3480.460824355235
 30
0.0
 11
1577.727232204702
 21
3436.582185157005
 31
0.0
  0
LINE
  5
20E
330
1F
100
AcDbEntity
  8
STR
100
AcDbLine
 10
1669.689654778356
 20
3480.460824355235
 30
0.0
 11
1669.689654778357
 21
3436.582185157005
 31
0.0
  0
LINE
  5
20F
330
1F
100
AcDbEntity
  8
STR
100
AcDbLine
 10
1957.832062250473
 20
3120.578304691326
 30
0.0
 11
1957.832062250473
 21
1927.459072046557
 31
0.0
  0
LINE
  5
212
330
1F
100
AcDbEntity
  8
STR
100
AcDbLine
 10
1399.027555444155
 20
3325.627572995754
 30
0.0
 11
1158.708443491529
 21
3325.627572995754
 31
0.0
  0
LINE
  5
213
330
1F
100
AcDbEntity
  8
STR
100
AcDbLine
 10
1158.708443491529
 20
3325.627572995754
 30
0.0
 11
1158.708443491529
 21
3223.745343220499
 31
0.0
  0
LINE
  5
214
330
1F
100
AcDbEntity
  8
STR
100
AcDbLine
 10
1158.708443491529
 20
3223.745343220499
 30
0.0
 11
1399.027555444155
 21
3223.745343220499
 31
0.0
  0
LINE
  5
26E
330
1F
100
AcDbEntity
  8
STR
100
AcDbLine
 10
1740.80190303407
 20
1918.432908091858
 30
0.0
 11
1740.80190303407
 21
1667.461519854616
 31
0.0
  0
LINE
  5
26F
330
1F
100
AcDbEntity
  8
STR
100
AcDbLine
 10
1797.574648294647
 20
1706.179186335315
 30
0.0
 11
1684.029157773494
 21
1706.179186335315
 31
0.0
  0
LINE
  5
270
330
1F
100
AcDbEntity
  8
STR
100
AcDbLine
 10
1826.357996583716
 20
1682.839821806809
 30
0.0
 11
1665.78830936498
 21
1682.839821806809
 31
0.0
  0
LINE
  5
2B6
330
1F
100
AcDbEntity
  8
STR
100
AcDbLine
 10
2524.36861851266
 20
5964.990742171526
 30
0.0
 11
2524.36861851266
 21
5280.186585539293
 31
0.0
  0
LINE
  5
2B7
330
1F
100
AcDbEntity
  8
STR
100
AcDbLine
 10
2524.36861851266
 20
5964.990742171526
 30
0.0
 11
2620.920907083614
 21
5964.990742171526
 31
0.0
  0
LINE
  5
2B8
330
1F
100
AcDbEntity
  8
STR
100
AcDbLine
 10
2620.920907083614
 20
5964.990742171526
 30
0.0
 11
2620.920907083614
 21
5280.186585539293
 31
0.0
  0
LINE
  5
2B9
330
1F
100
AcDbEntity
  8
STR
100
AcDbLine
 10
2524.36861851266
 20
5280.186585539293
 30
0.0
 11
2620.920907083614
 21
5280.186585539293
 31
0.0
  0
LINE
  5
2BB
330
1F
100
AcDbEntity
  8
BMK
100
AcDbLine
 10
1870.622787393942
 20
6006.147566512339
 30
0.0
 11
1668.158722242922
 21
6208.611631663358
 31
0.0
  0
LINE
  5
2BD
330
1F
100
AcDbEntity
  8
BMK
100
AcDbLine
 10
1877.958136961538
 20
5246.365110766075
 30
0.0
 11
1678.887170020264
 21
5047.2941438248
 31
0.0
  0
LINE
  5
2BF
330
1F
100
AcDbEntity
  8
BMK
100
AcDbLine
 10
2640.8915561676
 20
5235.87879773868
 30
0.0
 11
2834.306945337079
 21
5042.463408569203
 31
0.0
  0
LINE
  5
2C1
330
1F
100
AcDbEntity
  8
BMK
100
AcDbLine
 10
2641.441037701379
 20
6009.848011505916
 30
0.0
 11
2809.972882390029
 21
6178.379856194567
 31
0.0
  0
LINE
  5
2E5
330
1F
100
AcDbEntity
  8
BMK
100
AcDbLine
 10
1673.468392685339
 20
5750.53183054177
 30
0.0
 11
1673.468392685339
 21
5494.645497169049
 31
0.0
  0
LINE
  5
2E6
330
1F
100
AcDbEntity
  8
STR
100
AcDbLine
 10
1488.608863553884
 20
5650.739314936271
 30
0.0
 11
1599.088507827739
 21
5650.739314936273
 31
0.0
  0
LINE
  5
2E7
330
1F
100
AcDbEntity
  8
STR
100
AcDbLine
 10
1488.608863553884
 20
5594.438012774547
 30
0.0
 11
1599.088507827739
 21
5594.438012774548
 31
0.0
  0
CIRCLE
  5
2E8
330
1F
100
AcDbEntity
  8
STR
100
AcDbCircle
 10
1673.468392685339
 20
5622.58866385541
 30
0.0
 40
74.37988485759979
  0
CIRCLE
  5
2E9
330
1F
100
AcDbEntity
  8
STR
100
AcDbCircle
 10
1673.468392685339
 20
5622.58866385541
 30
0.0
 40
37.84404181976697
  0
LINE
  5
2EA
330
1F
100
AcDbEntity
  8
STR
100
AcDbLine
 10
1599.088507827739
 20
5494.645497169049
 30
0.0
 11
1599.088507827739
 21
5750.53183054177
 31
0.0
  0
LINE
  5
2EB
330
1F
100
AcDbEntity
  8
STR
100
AcDbLine
 10
1747.848277542939
 20
5494.645497169049
 30
0.0
 11
1747.848277542939
 21
5750.53183054177
 31
0.0
  0
LINE
  5
2EC
330
1F
100
AcDbEntity
  8
STR
100
AcDbLine
 10
1747.84827754294
 20
5594.438012774548
 30
0.0
 11
1858.327921816794
 21
5594.438012774547
 31
0.0
  0
LINE
  5
2ED
330
1F
100
AcDbEntity
  8
STR
100
AcDbLine
 10
1747.84827754294
 20
5650.739314936273
 30
0.0
 11
1858.327921816794
 21
5650.739314936271
 31
0.0
  0
LINE
  5
30F
330
1F
100
AcDbEntity
  8
STR
100
AcDbLine
 10
1807.401536328789
 20
3072.616955519332
 30
0.0
 11
1807.401536328778
 21
1512.475166774703
 31
0.0
  0
LINE
  5
4FC
330
1F
100
AcDbEntity
  8
STR
100
AcDbLine
 10
1807.401536328783
 20
2137.53356045928
 30
0.0
 11
1440.015350654269
 21
2137.53356045928
 31
0.0
  0
LINE
  5
515
330
1F
100
AcDbEntity
  8
STR
100
AcDbLine
 10
1216.934242926708
 20
2242.376529453998
 30
0.0
 11
1777.401536328784
 21
2242.376529453998
 31
0.0
  0
TEXT
  5
519
330
1F
100
AcDbEntity
  8
STR
100
AcDbText
 10
1209.058421888278
 20
2278.347391388916
 30
0.0
 40
60.0
  1
ＭＡＸ450Ａ
 50
90.0
100
AcDbText
  0
LINE
  5
51A
330
1F
100
AcDbEntity
  8
STR
100
AcDbLine
 10
1777.401536328784
 20
2250.415005153998
 30
0.0
 11
1807.401536328784
 21
2242.376529453998
 31
0.0
  0
LINE
  5
51B
330
1F
100
AcDbEntity
  8
STR
100
AcDbLine
 10
1807.401536328784
 20
2242.376529453998
 30
0.0
 11
1777.401536328784
 21
2234.338053753997
 31
0.0
  0
LINE
  5
51C
330
1F
100
AcDbEntity
  8
STR
100
AcDbLine
 10
1807.401536328784
 20
2242.376529453998
 30
0.0
 11
1777.401536328784
 21
2242.376529453998
 31
0.0
  0
LINE
  5
51D
330
1F
100
AcDbEntity
  8
STR
100
AcDbLine
 10
1470.015350654269
 20
2234.338053753997
 30
0.0
 11
1440.015350654269
 21
2242.376529453998
 31
0.0
  0
LINE
  5
51E
330
1F
100
AcDbEntity
  8
STR
100
AcDbLine
 10
1440.015350654269
 20
2242.376529453998
 30
0.0
 11
1470.015350654269
 21
2250.415005153998
 31
0.0
  0
LINE
  5
51F
330
1F
100
AcDbEntity
  8
STR
100
AcDbLine
 10
1440.015350654269
 20
2242.376529453998
 30
0.0
 11
1470.015350654269
 21
2242.376529453998
 31
0.0
  0
LINE
  5
541
330
1F
100
AcDbEntity
  8
STR
100
AcDbLine
 10
1216.934242926708
 20
2242.376529453998
 30
0.0
 11
1216.934242926708
 21
2739.129854922941
 31
0.0
  0
LINE
  5
5E6
330
1F
100
AcDbEntity
  8
STR
100
AcDbLine
 10
2281.960334961063
 20
2561.019438593926
 30
0.0
 11
2377.880425484472
 21
2853.056428335822
 31
0.0
  0
LINE
  5
5E7
330
1F
100
AcDbEntity
  8
STR
100
AcDbLine
 10
2289.597412861588
 20
2558.511026203426
 30
0.0
 11
2272.598812388447
 21
2532.517475589206
 31
0.0
  0
LINE
  5
5E8
330
1F
100
AcDbEntity
  8
STR
100
AcDbLine
 10
2272.598812388447
 20
2532.517475589206
 30
0.0
 11
2274.323257060538
 21
2563.527850984425
 31
0.0
  0
LINE
  5
5E9
330
1F
100
AcDbEntity
  8
STR
100
AcDbLine
 10
2272.598812388447
 20
2532.517475589206
 30
0.0
 11
2281.960334961063
 21
2561.019438593926
 31
0.0
  0
LINE
  5
5EA
330
1F
100
AcDbEntity
  8
STR
100
AcDbLine
 10
2377.880425484472
 20
2853.056428335822
 30
0.0
 11
2922.784843158579
 21
2853.056428335822
 31
0.0
  0
TEXT
  5
5EB
330
1F
100
AcDbEntity
  8
STR
100
AcDbText
 10
2396.082451391888
 20
2861.103532020149
 30
0.0
 40
60.0
  1
ターンバックル
100
AcDbText
  0
LINE
  5
5FE
330
1F
100
AcDbEntity
  8
STR
100
AcDbLine
 10
1632.900669004516
 20
3678.505072147263
 30
0.0
 11
1468.481945353723
 21
3938.221745575388
 31
0.0
  0
LINE
  5
5FF
330
1F
100
AcDbEntity
  8
STR
100
AcDbLine
 10
1639.692536256637
 20
3682.804796651121
 30
0.0
 11
1648.947459457053
 21
3653.157478254108
 31
0.0
  0
LINE
  5
600
330
1F
100
AcDbEntity
  8
STR
100
AcDbLine
 10
1648.947459457053
 20
3653.157478254108
 30
0.0
 11
1626.108801752396
 21
3674.205347643406
 31
0.0
  0
LINE
  5
601
330
1F
100
AcDbEntity
  8
STR
100
AcDbLine
 10
1648.947459457053
 20
3653.157478254108
 30
0.0
 11
1632.900669004516
 21
3678.505072147263
 31
0.0
  0
LINE
  5
602
330
1F
100
AcDbEntity
  8
STR
100
AcDbLine
 10
1468.481945353723
 20
3938.221745575388
 30
0.0
 11
2146.265077934985
 21
3938.221745575388
 31
0.0
  0
TEXT
  5
603
330
1F
100
AcDbEntity
  8
STR
100
AcDbText
 10
1486.683971261139
 20
3946.268849259715
 30
0.0
 40
60.0
  1
ウォータースイベル
100
AcDbText
  0
LINE
  5
635
330
1F
100
AcDbEntity
  8
STR
100
AcDbLine
 10
1477.300358927298
 20
3602.222000492119
 30
0.0
 11
1191.656308773744
 21
4053.426831932008
 31
0.0
  0
LINE
  5
636
330
1F
100
AcDbEntity
  8
STR
100
AcDbLine
 10
1484.092226179419
 20
3606.521724995977
 30
0.0
 11
1493.347149379836
 21
3576.874406598964
 31
0.0
  0
LINE
  5
637
330
1F
100
AcDbEntity
  8
STR
100
AcDbLine
 10
1493.347149379836
 20
3576.874406598964
 30
0.0
 11
1470.508491675177
 21
3597.922275988262
 31
0.0
  0
LINE
  5
638
330
1F
100
AcDbEntity
  8
STR
100
AcDbLine
 10
1493.347149379836
 20
3576.874406598964
 30
0.0
 11
1477.300358927298
 21
3602.222000492119
 31
0.0
  0
LINE
  5
639
330
1F
100
AcDbEntity
  8
STR
100
AcDbLine
 10
1191.656308773744
 20
4053.426831932008
 30
0.0
 11
1852.311801892416
 21
4053.426831932006
 31
0.0
  0
TEXT
  5
63A
330
1F
100
AcDbEntity
  8
STR
100
AcDbText
 10
1237.761959665967
 20
4061.473935616334
 30
0.0
 40
60.0
  1
ＫＹＴ-204ＷＨ
100
AcDbText
  0
LINE
  5
647
330
1F
100
AcDbEntity
  8
STR
100
AcDbLine
 10
1813.744506221341
 20
6180.035827720979
 30
0.0
 11
1909.664596744751
 21
6472.072817462876
 31
0.0
  0
LINE
  5
648
330
1F
100
AcDbEntity
  8
STR
100
AcDbLine
 10
1821.381584121866
 20
6177.527415330479
 30
0.0
 11
1804.382983648725
 21
6151.53386471626
 31
0.0
  0
LINE
  5
649
330
1F
100
AcDbEntity
  8
STR
100
AcDbLine
 10
1804.382983648725
 20
6151.53386471626
 30
0.0
 11
1806.107428320816
 21
6182.544240111479
 31
0.0
  0
LINE
  5
64A
330
1F
100
AcDbEntity
  8
STR
100
AcDbLine
 10
1804.382983648725
 20
6151.53386471626
 30
0.0
 11
1813.744506221341
 21
6180.035827720979
 31
0.0
  0
LINE
  5
64B
330
1F
100
AcDbEntity
  8
STR
100
AcDbLine
 10
1909.664596744751
 20
6472.072817462876
 30
0.0
 11
2582.765446033025
 21
6472.072817462874
 31
0.0
  0
TEXT
  5
64C
330
1F
100
AcDbEntity
  8
STR
100
AcDbText
 10
1927.866622652167
 20
6480.119921147203
 30
0.0
 40
60.0
  1
アウトリガー4カ所
100
AcDbText
  0
TEXT
  5
675
330
1F
100
AcDbEntity
  8
STR
100
AcDbText
 10
1625.345763589414
 20
7629.896203598943
 30
0.0
 40
60.0
  1
3-3ａ　機械、削進台の寸法図（ａ）
100
AcDbText
  0
TEXT
  5
676
330
1F
100
AcDbEntity
  8
STR
100
AcDbText
 10
1625.345763589414
 20
7215.597221356869
 30
0.0
 40
60.0
  1
ベビーモールＫＹＴ-204ＷＨ
100
AcDbText
  0
TEXT
  5
677
330
1F
100
AcDbEntity
  8
STR
100
AcDbText
 10
2064.492936189835
 20
7126.681375910798
 30
0.0
 40
60.0
  1
ＫＹＴ-204ＷＺ削進台据付図
100
AcDbText
  0
LINE
  5
AE5
330
1F
100
AcDbEntity
  8
STR
100
AcDbLine
 10
2885.217941395536
 20
6187.588656294197
 30
0.0
 11
3192.364142510395
 21
6187.588656294197
 31
0.0
  0
LINE
  5
AE6
330
1F
100
AcDbEntity
  8
STR
100
AcDbLine
 10
2885.217941395536
 20
5057.58867141662
 30
0.0
 11
3192.364142510395
 21
5057.58867141662
 31
0.0
  0
LINE
  5
AE7
330
1F
100
AcDbEntity
  8
STR
100
AcDbLine
 10
3191.114142510395
 20
6157.588656294197
 30
0.0
 11
3191.114142510395
 21
5087.58867141662
 31
0.0
  0
LINE
  5
AEB
330
1F
100
AcDbEntity
  8
STR
100
AcDbLine
 10
2885.217941395536
 20
6187.588656294197
 30
0.0
 11
3087.676038146472
 21
6187.588656294197
 31
0.0
  0
LINE
  5
AEC
330
1F
100
AcDbEntity
  8
STR
100
AcDbLine
 10
2885.217941395536
 20
5057.58867141662
 30
0.0
 11
3087.676038146471
 21
5057.58867141662
 31
0.0
  0
LINE
  5
AED
330
1F
100
AcDbEntity
  8
STR
100
AcDbLine
 10
3086.426038146472
 20
6157.588656294197
 30
0.0
 11
3086.426038146471
 21
5087.58867141662
 31
0.0
  0
LINE
  5
AF1
330
1F
100
AcDbEntity
  8
STR
100
AcDbLine
 10
2893.248439566061
 20
1682.83982180681
 30
0.0
 11
3185.018461317849
 21
1682.83982180681
 31
0.0
  0
LINE
  5
AF2
330
1F
100
AcDbEntity
  8
STR
100
AcDbLine
 10
2929.737231236805
 20
1832.839821806809
 30
0.0
 11
3185.018461317849
 21
1832.839821806809
 31
0.0
  0
LINE
  5
AF3
330
1F
100
AcDbEntity
  8
STR
100
AcDbLine
 10
3183.768461317848
 20
1712.839821806809
 30
0.0
 11
3183.768461317848
 21
1802.839821806809
 31
0.0
  0
LINE
  5
AF4
330
1F
100
AcDbEntity
  8
STR
100
AcDbLine
 10
3183.768461317848
 20
1832.839821806809
 30
0.0
 11
3183.768461317848
 21
2012.839821806809
 31
0.0
  0
LINE
  5
AF8
330
1F
100
AcDbEntity
  8
STR
100
AcDbLine
 10
2139.510393728897
 20
3682.839821806809
 30
0.0
 11
3395.763609493172
 21
3682.839821806809
 31
0.0
  0
LINE
  5
AF9
330
1F
100
AcDbEntity
  8
STR
100
AcDbLine
 10
2892.62343956606
 20
1682.83982180681
 30
0.0
 11
3395.763609493172
 21
1682.83982180681
 31
0.0
  0
LINE
  5
AFA
330
1F
100
AcDbEntity
  8
STR
100
AcDbLine
 10
3394.513609493172
 20
3652.839821806809
 30
0.0
 11
3394.513609493172
 21
1712.839821806809
 31
0.0
  0
LINE
  5
AFE
330
1F
100
AcDbEntity
  8
STR
100
AcDbLine
 10
1623.70844349153
 20
3700.307063831799
 30
0.0
 11
1623.70844349153
 21
4264.378908738307
 31
0.0
  0
LINE
  5
AFF
330
1F
100
AcDbEntity
  8
STR
100
AcDbLine
 10
2059.708443491529
 20
3731.119428344459
 30
0.0
 11
2059.708443491529
 21
4264.378908738307
 31
0.0
  0
LINE
  5
B00
330
1F
100
AcDbEntity
  8
STR
100
AcDbLine
 10
1653.708443491529
 20
4263.128908738307
 30
0.0
 11
2029.708443491529
 21
4263.128908738307
 31
0.0
  0
LINE
  5
B04
330
1F
100
AcDbEntity
  8
STR
100
AcDbLine
 10
1158.708443491529
 20
3431.839188658624
 30
0.0
 11
1158.708443491529
 21
4264.378908738307
 31
0.0
  0
LINE
  5
B05
330
1F
100
AcDbEntity
  8
STR
100
AcDbLine
 10
1623.70844349153
 20
3700.307063831799
 30
0.0
 11
1623.70844349153
 21
4264.378908738307
 31
0.0
  0
LINE
  5
B06
330
1F
100
AcDbEntity
  8
STR
100
AcDbLine
 10
1188.708443491529
 20
4263.128908738307
 30
0.0
 11
1593.70844349153
 21
4263.128908738307
 31
0.0
  0
LINE
  5
B0A
330
1F
100
AcDbEntity
  8
STR
100
AcDbLine
 10
1158.708443491529
 20
3431.214188658624
 30
0.0
 11
1158.708443491529
 21
4440.42380854612
 31
0.0
  0
LINE
  5
B0B
330
1F
100
AcDbEntity
  8
STR
100
AcDbLine
 10
2059.708443491529
 20
3731.119428344459
 30
0.0
 11
2059.708443491529
 21
4440.42380854612
 31
0.0
  0
LINE
  5
B0C
330
1F
100
AcDbEntity
  8
STR
100
AcDbLine
 10
1188.708443491529
 20
4439.173808546121
 30
0.0
 11
2029.708443491529
 21
4439.173808546121
 31
0.0
  0
LINE
  5
B10
330
1F
100
AcDbEntity
  8
STR
100
AcDbLine
 10
1689.181682489658
 20
1626.539299014924
 30
0.0
 11
1689.181682489658
 21
1085.426257843969
 31
0.0
  0
LINE
  5
B11
330
1F
100
AcDbEntity
  8
STR
100
AcDbLine
 10
2819.181682489658
 20
1626.539299014924
 30
0.0
 11
2819.181682489658
 21
1085.426257843969
 31
0.0
  0
LINE
  5
B12
330
1F
100
AcDbEntity
  8
STR
100
AcDbLine
 10
1719.181682489658
 20
1086.676257843969
 30
0.0
 11
2789.181682489658
 21
1086.676257843969
 31
0.0
  0
LINE
  5
B16
330
1F
100
AcDbEntity
  8
STR
100
AcDbLine
 10
1689.181682489658
 20
1627.164299014923
 30
0.0
 11
1689.181682489658
 21
1200.367954598888
 31
0.0
  0
LINE
  5
B17
330
1F
100
AcDbEntity
  8
STR
100
AcDbLine
 10
2819.181682489658
 20
1627.164299014923
 30
0.0
 11
2819.181682489658
 21
1200.367954598888
 31
0.0
  0
LINE
  5
B18
330
1F
100
AcDbEntity
  8
STR
100
AcDbLine
 10
1719.181682489658
 20
1201.617954598888
 30
0.0
 11
2789.181682489658
 21
1201.617954598888
 31
0.0
  0
LINE
  5
B1C
330
1F
100
AcDbEntity
  8
STR
100
AcDbLine
 10
2006.109000529094
 20
2976.95964970927
 30
0.0
 11
2113.307886453964
 21
2976.95964970927
 31
0.0
  0
LINE
  5
B1D
330
1F
100
AcDbEntity
  8
STR
100
AcDbLine
 10
2113.307886453964
 20
2976.95964970927
 30
0.0
 11
2113.307886453964
 21
2846.456300352913
 31
0.0
  0
LINE
  5
B1E
330
1F
100
AcDbEntity
  8
STR
100
AcDbLine
 10
2113.307886453964
 20
2846.456300352913
 30
0.0
 11
2006.109000529094
 21
2846.456300352913
 31
0.0
  0
LINE
  5
B1F
330
1F
100
AcDbEntity
  8
STR
100
AcDbLine
 10
2006.109000529094
 20
2846.456300352913
 30
0.0
 11
2006.109000529094
 21
2976.95964970927
 31
0.0
  0
LINE
  5
B20
330
1F
100
AcDbEntity
  8
STR
100
AcDbLine
 10
2002.762319427191
 20
1832.839821806809
 30
0.0
 11
2505.601045552124
 21
1832.839821806809
 31
0.0
  0
LINE
  5
B21
330
1F
100
AcDbEntity
  8
STR
100
AcDbLine
 10
2505.601045552124
 20
1832.839821806809
 30
0.0
 11
2505.601045552124
 21
1698.104591218539
 31
0.0
  0
LINE
  5
B22
330
1F
100
AcDbEntity
  8
STR
100
AcDbLine
 10
2505.601045552124
 20
1698.104591218539
 30
0.0
 11
2002.762319427191
 21
1698.104591218539
 31
0.0
  0
LINE
  5
B23
330
1F
100
AcDbEntity
  8
STR
100
AcDbLine
 10
2002.762319427191
 20
1698.104591218539
 30
0.0
 11
2002.762319427191
 21
1832.839821806809
 31
0.0
  0
LINE
  5
B24
330
1F
100
AcDbEntity
  8
STR
100
AcDbLine
 10
1689.181697612087
 20
4990.326453108302
 30
0.0
 11
1689.181697612087
 21
4673.970196113049
 31
0.0
  0
LINE
  5
B25
330
1F
100
AcDbEntity
  8
STR
100
AcDbLine
 10
2819.181682489658
 20
4990.326453108302
 30
0.0
 11
2819.181682489658
 21
4673.970196113049
 31
0.0
  0
LINE
  5
B26
330
1F
100
AcDbEntity
  8
STR
100
AcDbLine
 10
1719.181697612087
 20
4675.220196113048
 30
0.0
 11
2789.181682489658
 21
4675.220196113048
 31
0.0
  0
LINE
  5
B2A
330
1F
100
AcDbEntity
  8
STR
100
AcDbLine
 10
1689.181697612087
 20
4990.326453108302
 30
0.0
 11
1689.181697612087
 21
4771.030386811516
 31
0.0
  0
LINE
  5
B2B
330
1F
100
AcDbEntity
  8
STR
100
AcDbLine
 10
2819.181682489658
 20
4990.326453108302
 30
0.0
 11
2819.181682489658
 21
4771.030386811516
 31
0.0
  0
LINE
  5
B2C
330
1F
100
AcDbEntity
  8
STR
100
AcDbLine
 10
1719.181697612087
 20
4772.280386811516
 30
0.0
 11
2789.181682489658
 21
4772.280386811516
 31
0.0
  0
LINE
  5
B30
330
1F
100
AcDbEntity
  8
STR
100
AcDbLine
 10
1488.608863553884
 20
5750.53183054177
 30
0.0
 11
1858.327921816794
 21
5750.53183054177
 31
0.0
  0
LINE
  5
B31
330
1F
100
AcDbEntity
  8
STR
100
AcDbLine
 10
1858.327921816794
 20
5750.53183054177
 30
0.0
 11
1858.327921816794
 21
5494.645497169049
 31
0.0
  0
LINE
  5
B32
330
1F
100
AcDbEntity
  8
STR
100
AcDbLine
 10
1858.327921816794
 20
5494.645497169049
 30
0.0
 11
1488.608863553884
 21
5494.645497169049
 31
0.0
  0
LINE
  5
B33
330
1F
100
AcDbEntity
  8
STR
100
AcDbLine
 10
1488.608863553884
 20
5494.645497169049
 30
0.0
 11
1488.608863553884
 21
5750.53183054177
 31
0.0
  0
ARC
  5
B34
330
1F
100
AcDbEntity
  8
STR
100
AcDbCircle
 10
1897.385870562344
 20
5494.974802114397
 30
0.0
 40
39.05933693698674
100
AcDbArc
 50
180.4830600964581
 51
238.3680486650628
  0
ARC
  5
B35
330
1F
100
AcDbEntity
  8
STR
100
AcDbCircle
 10
1897.385870562344
 20
5750.202525596422
 30
0.0
 40
39.0593369369856
100
AcDbArc
 50
121.631951334937
 51
179.5169399035418
  0
LINE
  5
B36
330
1F
100
AcDbEntity
  8
STR
100
AcDbLine
 10
2117.447266262424
 20
5688.139778456505
 30
0.0
 11
2117.447266262424
 21
5730.787514440386
 31
0.0
  0
LINE
  5
B37
330
1F
100
AcDbEntity
  8
STR
100
AcDbLine
 10
2117.447266262424
 20
5730.787514440386
 30
0.0
 11
2362.346576581499
 21
5730.787514440386
 31
0.0
  0
LINE
  5
B38
330
1F
100
AcDbEntity
  8
STR
100
AcDbLine
 10
2362.346576581499
 20
5730.787514440386
 30
0.0
 11
2362.346576581499
 21
5514.389813270433
 31
0.0
  0
LINE
  5
B39
330
1F
100
AcDbEntity
  8
STR
100
AcDbLine
 10
2362.346576581499
 20
5514.389813270433
 30
0.0
 11
2117.447266262424
 21
5514.389813270433
 31
0.0
  0
LINE
  5
B3A
330
1F
100
AcDbEntity
  8
STR
100
AcDbLine
 10
2117.447266262424
 20
5514.389813270433
 30
0.0
 11
2117.447266262424
 21
5557.037549254312
 31
0.0
  0
LINE
  5
B3B
330
1F
100
AcDbEntity
  8
STR
100
AcDbLine
 10
2060.748334104924
 20
5812.060159323277
 30
0.0
 11
2455.430479700873
 21
5812.060159323277
 31
0.0
  0
LINE
  5
B3C
330
1F
100
AcDbEntity
  8
STR
100
AcDbLine
 10
2455.430479700873
 20
5812.060159323277
 30
0.0
 11
2455.430479700873
 21
5433.117168387541
 31
0.0
  0
LINE
  5
B3D
330
1F
100
AcDbEntity
  8
STR
100
AcDbLine
 10
2455.430479700873
 20
5433.117168387541
 30
0.0
 11
2060.748334104924
 21
5433.117168387541
 31
0.0
  0
LINE
  5
B3E
330
1F
100
AcDbEntity
  8
STR
100
AcDbLine
 10
2060.748334104924
 20
5433.117168387541
 30
0.0
 11
2060.748334104924
 21
5812.060159323277
 31
0.0
  0
LINE
  5
B3F
330
1F
100
AcDbEntity
  8
STR
  6
BYBLOCK
 62
     0
100
AcDbLine
 10
1719.181682489658
 20
1193.579478898888
 30
0.0
 11
1689.181682489658
 21
1201.617954598888
 31
0.0
  0
LINE
  5
B40
330
1F
100
AcDbEntity
  8
STR
  6
BYBLOCK
 62
     0
100
AcDbLine
 10
1689.181682489658
 20
1201.617954598888
 30
0.0
 11
1719.181682489658
 21
1209.656430298887
 31
0.0
  0
LINE
  5
B41
330
1F
100
AcDbEntity
  8
STR
  6
BYBLOCK
 62
     0
100
AcDbLine
 10
1689.181682489658
 20
1201.617954598888
 30
0.0
 11
1719.181682489658
 21
1201.617954598888
 31
0.0
  0
LINE
  5
B42
330
1F
100
AcDbEntity
  8
STR
  6
BYBLOCK
 62
     0
100
AcDbLine
 10
1719.181682489658
 20
1078.637782143969
 30
0.0
 11
1689.181682489658
 21
1086.676257843969
 31
0.0
  0
LINE
  5
B43
330
1F
100
AcDbEntity
  8
STR
  6
BYBLOCK
 62
     0
100
AcDbLine
 10
1689.181682489658
 20
1086.676257843969
 30
0.0
 11
1719.181682489658
 21
1094.714733543969
 31
0.0
  0
LINE
  5
B44
330
1F
100
AcDbEntity
  8
STR
  6
BYBLOCK
 62
     0
100
AcDbLine
 10
1689.181682489658
 20
1086.676257843969
 30
0.0
 11
1719.181682489658
 21
1086.676257843969
 31
0.0
  0
TEXT
  5
B45
330
1F
100
AcDbEntity
  8
STR
100
AcDbText
 10
2061.181682489658
 20
1211.617954598888
 30
0.0
 40
60.0
  1
ＭＩＮ1130
100
AcDbText
  0
TEXT
  5
B46
330
1F
100
AcDbEntity
  8
STR
100
AcDbText
 10
2051.181682489658
 20
1096.676257843969
 30
0.0
 40
60.0
  1
ＭＡＸ1560
100
AcDbText
  0
LINE
  5
B47
330
1F
100
AcDbEntity
  8
STR
  6
BYBLOCK
 62
     0
100
AcDbLine
 10
2789.181682489658
 20
1094.714733543969
 30
0.0
 11
2819.181682489658
 21
1086.676257843969
 31
0.0
  0
LINE
  5
B48
330
1F
100
AcDbEntity
  8
STR
  6
BYBLOCK
 62
     0
100
AcDbLine
 10
2819.181682489658
 20
1086.676257843969
 30
0.0
 11
2789.181682489658
 21
1078.637782143969
 31
0.0
  0
LINE
  5
B49
330
1F
100
AcDbEntity
  8
STR
  6
BYBLOCK
 62
     0
100
AcDbLine
 10
2819.181682489658
 20
1086.676257843969
 30
0.0
 11
2789.181682489658
 21
1086.676257843969
 31
0.0
  0
LINE
  5
B4A
330
1F
100
AcDbEntity
  8
STR
  6
BYBLOCK
 62
     0
100
AcDbLine
 10
2789.181682489658
 20
1209.656430298887
 30
0.0
 11
2819.181682489658
 21
1201.617954598888
 31
0.0
  0
LINE
  5
B4B
330
1F
100
AcDbEntity
  8
STR
  6
BYBLOCK
 62
     0
100
AcDbLine
 10
2819.181682489658
 20
1201.617954598888
 30
0.0
 11
2789.181682489658
 21
1193.579478898888
 31
0.0
  0
LINE
  5
B4C
330
1F
100
AcDbEntity
  8
STR
  6
BYBLOCK
 62
     0
100
AcDbLine
 10
2819.181682489658
 20
1201.617954598888
 30
0.0
 11
2789.181682489658
 21
1201.617954598888
 31
0.0
  0
LINE
  5
B4D
330
1F
100
AcDbEntity
  8
STR
  6
BYBLOCK
 62
     0
100
AcDbLine
 10
2029.708443491529
 20
4447.212284246121
 30
0.0
 11
2059.708443491529
 21
4439.173808546121
 31
0.0
  0
LINE
  5
B4E
330
1F
100
AcDbEntity
  8
STR
  6
BYBLOCK
 62
     0
100
AcDbLine
 10
2059.708443491529
 20
4439.173808546121
 30
0.0
 11
2029.708443491529
 21
4431.13533284612
 31
0.0
  0
LINE
  5
B4F
330
1F
100
AcDbEntity
  8
STR
  6
BYBLOCK
 62
     0
100
AcDbLine
 10
2059.708443491529
 20
4439.173808546121
 30
0.0
 11
2029.708443491529
 21
4439.173808546121
 31
0.0
  0
LINE
  5
B50
330
1F
100
AcDbEntity
  8
STR
  6
BYBLOCK
 62
     0
100
AcDbLine
 10
2029.708443491529
 20
4271.167384438308
 30
0.0
 11
2059.708443491529
 21
4263.128908738307
 31
0.0
  0
LINE
  5
B51
330
1F
100
AcDbEntity
  8
STR
  6
BYBLOCK
 62
     0
100
AcDbLine
 10
2059.708443491529
 20
4263.128908738307
 30
0.0
 11
2029.708443491529
 21
4255.090433038307
 31
0.0
  0
LINE
  5
B52
330
1F
100
AcDbEntity
  8
STR
  6
BYBLOCK
 62
     0
100
AcDbLine
 10
2059.708443491529
 20
4263.128908738307
 30
0.0
 11
2029.708443491529
 21
4263.128908738307
 31
0.0
  0
TEXT
  5
B53
330
1F
100
AcDbEntity
  8
STR
100
AcDbText
 10
1544.208443491529
 20
4449.173808546121
 30
0.0
 40
60.0
  1
901
100
AcDbText
  0
TEXT
  5
B54
330
1F
100
AcDbEntity
  8
STR
100
AcDbText
 10
1311.208443491529
 20
4273.128908738307
 30
0.0
 40
60.0
  1
465
100
AcDbText
  0
LINE
  5
B55
330
1F
100
AcDbEntity
  8
STR
  6
BYBLOCK
 62
     0
100
AcDbLine
 10
1188.708443491529
 20
4255.090433038307
 30
0.0
 11
1158.708443491529
 21
4263.128908738307
 31
0.0
  0
LINE
  5
B56
330
1F
100
AcDbEntity
  8
STR
  6
BYBLOCK
 62
     0
100
AcDbLine
 10
1158.708443491529
 20
4263.128908738307
 30
0.0
 11
1188.708443491529
 21
4271.167384438308
 31
0.0
  0
LINE
  5
B57
330
1F
100
AcDbEntity
  8
STR
  6
BYBLOCK
 62
     0
100
AcDbLine
 10
1158.708443491529
 20
4263.128908738307
 30
0.0
 11
1188.708443491529
 21
4263.128908738307
 31
0.0
  0
LINE
  5
B58
330
1F
100
AcDbEntity
  8
STR
  6
BYBLOCK
 62
     0
100
AcDbLine
 10
1188.708443491529
 20
4431.13533284612
 30
0.0
 11
1158.708443491529
 21
4439.173808546121
 31
0.0
  0
LINE
  5
B59
330
1F
100
AcDbEntity
  8
STR
  6
BYBLOCK
 62
     0
100
AcDbLine
 10
1158.708443491529
 20
4439.173808546121
 30
0.0
 11
1188.708443491529
 21
4447.212284246121
 31
0.0
  0
LINE
  5
B5A
330
1F
100
AcDbEntity
  8
STR
  6
BYBLOCK
 62
     0
100
AcDbLine
 10
1158.708443491529
 20
4439.173808546121
 30
0.0
 11
1188.708443491529
 21
4439.173808546121
 31
0.0
  0
TEXT
  5
B5B
330
1F
100
AcDbEntity
  8
STR
100
AcDbText
 10
1761.708443491529
 20
4273.128908738307
 30
0.0
 40
60.0
  1
436
100
AcDbText
  0
LINE
  5
B5C
330
1F
100
AcDbEntity
  8
STR
  6
BYBLOCK
 62
     0
100
AcDbLine
 10
1653.708443491529
 20
4255.090433038307
 30
0.0
 11
1623.70844349153
 21
4263.128908738307
 31
0.0
  0
LINE
  5
B5D
330
1F
100
AcDbEntity
  8
STR
  6
BYBLOCK
 62
     0
100
AcDbLine
 10
1623.70844349153
 20
4263.128908738307
 30
0.0
 11
1653.708443491529
 21
4271.167384438308
 31
0.0
  0
LINE
  5
B5E
330
1F
100
AcDbEntity
  8
STR
  6
BYBLOCK
 62
     0
100
AcDbLine
 10
1623.70844349153
 20
4263.128908738307
 30
0.0
 11
1653.708443491529
 21
4263.128908738307
 31
0.0
  0
LINE
  5
B5F
330
1F
100
AcDbEntity
  8
STR
  6
BYBLOCK
 62
     0
100
AcDbLine
 10
1593.70844349153
 20
4271.167384438308
 30
0.0
 11
1623.70844349153
 21
4263.128908738307
 31
0.0
  0
LINE
  5
B60
330
1F
100
AcDbEntity
  8
STR
  6
BYBLOCK
 62
     0
100
AcDbLine
 10
1623.70844349153
 20
4263.128908738307
 30
0.0
 11
1593.70844349153
 21
4255.090433038307
 31
0.0
  0
LINE
  5
B61
330
1F
100
AcDbEntity
  8
STR
  6
BYBLOCK
 62
     0
100
AcDbLine
 10
1623.70844349153
 20
4263.128908738307
 30
0.0
 11
1593.70844349153
 21
4263.128908738307
 31
0.0
  0
LINE
  5
B62
330
1F
100
AcDbEntity
  8
STR
  6
BYBLOCK
 62
     0
100
AcDbLine
 10
1719.181697612087
 20
4764.241911111516
 30
0.0
 11
1689.181697612087
 21
4772.280386811516
 31
0.0
  0
LINE
  5
B63
330
1F
100
AcDbEntity
  8
STR
  6
BYBLOCK
 62
     0
100
AcDbLine
 10
1689.181697612087
 20
4772.280386811516
 30
0.0
 11
1719.181697612087
 21
4780.318862511516
 31
0.0
  0
LINE
  5
B64
330
1F
100
AcDbEntity
  8
STR
  6
BYBLOCK
 62
     0
100
AcDbLine
 10
1689.181697612087
 20
4772.280386811516
 30
0.0
 11
1719.181697612087
 21
4772.280386811516
 31
0.0
  0
LINE
  5
B65
330
1F
100
AcDbEntity
  8
STR
  6
BYBLOCK
 62
     0
100
AcDbLine
 10
1719.181697612087
 20
4667.181720413048
 30
0.0
 11
1689.181697612087
 21
4675.220196113048
 31
0.0
  0
LINE
  5
B66
330
1F
100
AcDbEntity
  8
STR
  6
BYBLOCK
 62
     0
100
AcDbLine
 10
1689.181697612087
 20
4675.220196113048
 30
0.0
 11
1719.181697612087
 21
4683.258671813049
 31
0.0
  0
LINE
  5
B67
330
1F
100
AcDbEntity
  8
STR
  6
BYBLOCK
 62
     0
100
AcDbLine
 10
1689.181697612087
 20
4675.220196113048
 30
0.0
 11
1719.181697612087
 21
4675.220196113048
 31
0.0
  0
TEXT
  5
B68
330
1F
100
AcDbEntity
  8
STR
100
AcDbText
 10
2061.181690050872
 20
4782.280386811516
 30
0.0
 40
60.0
  1
ＭＩＮ1130
100
AcDbText
  0
TEXT
  5
B69
330
1F
100
AcDbEntity
  8
STR
100
AcDbText
 10
2051.181690050873
 20
4685.220196113049
 30
0.0
 40
60.0
  1
ＭＡＸ1560
100
AcDbText
  0
LINE
  5
B6A
330
1F
100
AcDbEntity
  8
STR
  6
BYBLOCK
 62
     0
100
AcDbLine
 10
2789.181682489658
 20
4683.258671813049
 30
0.0
 11
2819.181682489658
 21
4675.220196113048
 31
0.0
  0
LINE
  5
B6B
330
1F
100
AcDbEntity
  8
STR
  6
BYBLOCK
 62
     0
100
AcDbLine
 10
2819.181682489658
 20
4675.220196113048
 30
0.0
 11
2789.181682489658
 21
4667.181720413048
 31
0.0
  0
LINE
  5
B6C
330
1F
100
AcDbEntity
  8
STR
  6
BYBLOCK
 62
     0
100
AcDbLine
 10
2819.181682489658
 20
4675.220196113048
 30
0.0
 11
2789.181682489658
 21
4675.220196113048
 31
0.0
  0
LINE
  5
B6D
330
1F
100
AcDbEntity
  8
STR
  6
BYBLOCK
 62
     0
100
AcDbLine
 10
2789.181682489658
 20
4780.318862511516
 30
0.0
 11
2819.181682489658
 21
4772.280386811516
 31
0.0
  0
LINE
  5
B6E
330
1F
100
AcDbEntity
  8
STR
  6
BYBLOCK
 62
     0
100
AcDbLine
 10
2819.181682489658
 20
4772.280386811516
 30
0.0
 11
2789.181682489658
 21
4764.241911111516
 31
0.0
  0
LINE
  5
B6F
330
1F
100
AcDbEntity
  8
STR
  6
BYBLOCK
 62
     0
100
AcDbLine
 10
2819.181682489658
 20
4772.280386811516
 30
0.0
 11
2789.181682489658
 21
4772.280386811516
 31
0.0
  0
TEXT
  5
B70
330
1F
100
AcDbEntity
  8
STR
100
AcDbText
 10
3173.768461317848
 20
1872.83982180681
 30
0.0
 40
60.0
  1
150
 50
90.0
100
AcDbText
  0
LINE
  5
B71
330
1F
100
AcDbEntity
  8
STR
  6
BYBLOCK
 62
     0
100
AcDbLine
 10
3191.806937017849
 20
1712.839821806809
 30
0.0
 11
3183.768461317848
 21
1682.83982180681
 31
0.0
  0
LINE
  5
B72
330
1F
100
AcDbEntity
  8
STR
  6
BYBLOCK
 62
     0
100
AcDbLine
 10
3183.768461317848
 20
1682.83982180681
 30
0.0
 11
3175.729985617849
 21
1712.839821806809
 31
0.0
  0
LINE
  5
B73
330
1F
100
AcDbEntity
  8
STR
  6
BYBLOCK
 62
     0
100
AcDbLine
 10
3183.768461317848
 20
1682.83982180681
 30
0.0
 11
3183.768461317848
 21
1712.839821806809
 31
0.0
  0
LINE
  5
B74
330
1F
100
AcDbEntity
  8
STR
  6
BYBLOCK
 62
     0
100
AcDbLine
 10
3175.729985617849
 20
1802.839821806809
 30
0.0
 11
3183.768461317848
 21
1832.839821806809
 31
0.0
  0
LINE
  5
B75
330
1F
100
AcDbEntity
  8
STR
  6
BYBLOCK
 62
     0
100
AcDbLine
 10
3183.768461317848
 20
1832.839821806809
 30
0.0
 11
3191.806937017849
 21
1802.839821806809
 31
0.0
  0
LINE
  5
B76
330
1F
100
AcDbEntity
  8
STR
  6
BYBLOCK
 62
     0
100
AcDbLine
 10
3183.768461317848
 20
1832.839821806809
 30
0.0
 11
3183.768461317848
 21
1802.839821806809
 31
0.0
  0
LINE
  5
B77
330
1F
100
AcDbEntity
  8
STR
  6
BYBLOCK
 62
     0
100
AcDbLine
 10
3402.552085193172
 20
1712.839821806809
 30
0.0
 11
3394.513609493172
 21
1682.83982180681
 31
0.0
  0
LINE
  5
B78
330
1F
100
AcDbEntity
  8
STR
  6
BYBLOCK
 62
     0
100
AcDbLine
 10
3394.513609493172
 20
1682.83982180681
 30
0.0
 11
3386.475133793172
 21
1712.839821806809
 31
0.0
  0
LINE
  5
B79
330
1F
100
AcDbEntity
  8
STR
  6
BYBLOCK
 62
     0
100
AcDbLine
 10
3394.513609493172
 20
1682.83982180681
 30
0.0
 11
3394.513609493172
 21
1712.839821806809
 31
0.0
  0
TEXT
  5
B7A
330
1F
100
AcDbEntity
  8
STR
100
AcDbText
 10
3384.513609493172
 20
2587.83982180681
 30
0.0
 40
60.0
  1
2000
 50
90.0
100
AcDbText
  0
LINE
  5
B7B
330
1F
100
AcDbEntity
  8
STR
  6
BYBLOCK
 62
     0
100
AcDbLine
 10
3386.475133793172
 20
3652.839821806809
 30
0.0
 11
3394.513609493172
 21
3682.839821806809
 31
0.0
  0
LINE
  5
B7C
330
1F
100
AcDbEntity
  8
STR
  6
BYBLOCK
 62
     0
100
AcDbLine
 10
3394.513609493172
 20
3682.839821806809
 30
0.0
 11
3402.552085193173
 21
3652.839821806809
 31
0.0
  0
LINE
  5
B7D
330
1F
100
AcDbEntity
  8
STR
  6
BYBLOCK
 62
     0
100
AcDbLine
 10
3394.513609493172
 20
3682.839821806809
 30
0.0
 11
3394.513609493172
 21
3652.839821806809
 31
0.0
  0
TEXT
  5
B7E
330
1F
100
AcDbEntity
  8
STR
100
AcDbText
 10
3076.426038146471
 20
5429.588663855409
 30
0.0
 40
60.0
  1
ＭＩＮ1130
 50
90.0
100
AcDbText
  0
TEXT
  5
B7F
330
1F
100
AcDbEntity
  8
STR
100
AcDbText
 10
3181.114142510395
 20
5419.588663855409
 30
0.0
 40
60.0
  1
ＭＡＸ1560
 50
90.0
100
AcDbText
  0
LINE
  5
B80
330
1F
100
AcDbEntity
  8
STR
  6
BYBLOCK
 62
     0
100
AcDbLine
 10
3094.464513846471
 20
5087.58867141662
 30
0.0
 11
3086.426038146471
 21
5057.58867141662
 31
0.0
  0
LINE
  5
B81
330
1F
100
AcDbEntity
  8
STR
  6
BYBLOCK
 62
     0
100
AcDbLine
 10
3086.426038146471
 20
5057.58867141662
 30
0.0
 11
3078.387562446471
 21
5087.58867141662
 31
0.0
  0
LINE
  5
B82
330
1F
100
AcDbEntity
  8
STR
  6
BYBLOCK
 62
     0
100
AcDbLine
 10
3086.426038146471
 20
5057.58867141662
 30
0.0
 11
3086.426038146471
 21
5087.58867141662
 31
0.0
  0
LINE
  5
B83
330
1F
100
AcDbEntity
  8
STR
  6
BYBLOCK
 62
     0
100
AcDbLine
 10
3199.152618210395
 20
5087.58867141662
 30
0.0
 11
3191.114142510395
 21
5057.58867141662
 31
0.0
  0
LINE
  5
B84
330
1F
100
AcDbEntity
  8
STR
  6
BYBLOCK
 62
     0
100
AcDbLine
 10
3191.114142510395
 20
5057.58867141662
 30
0.0
 11
3183.075666810395
 21
5087.58867141662
 31
0.0
  0
LINE
  5
B85
330
1F
100
AcDbEntity
  8
STR
  6
BYBLOCK
 62
     0
100
AcDbLine
 10
3191.114142510395
 20
5057.58867141662
 30
0.0
 11
3191.114142510395
 21
5087.58867141662
 31
0.0
  0
LINE
  5
B86
330
1F
100
AcDbEntity
  8
STR
  6
BYBLOCK
 62
     0
100
AcDbLine
 10
3078.387562446471
 20
6157.588656294197
 30
0.0
 11
3086.426038146472
 21
6187.588656294197
 31
0.0
  0
LINE
  5
B87
330
1F
100
AcDbEntity
  8
STR
  6
BYBLOCK
 62
     0
100
AcDbLine
 10
3086.426038146472
 20
6187.588656294197
 30
0.0
 11
3094.464513846472
 21
6157.588656294197
 31
0.0
  0
LINE
  5
B88
330
1F
100
AcDbEntity
  8
STR
  6
BYBLOCK
 62
     0
100
AcDbLine
 10
3086.426038146472
 20
6187.588656294197
 30
0.0
 11
3086.426038146472
 21
6157.588656294197
 31
0.0
  0
LINE
  5
B89
330
1F
100
AcDbEntity
  8
STR
  6
BYBLOCK
 62
     0
100
AcDbLine
 10
3183.075666810395
 20
6157.588656294197
 30
0.0
 11
3191.114142510395
 21
6187.588656294197
 31
0.0
  0
LINE
  5
B8A
330
1F
100
AcDbEntity
  8
STR
  6
BYBLOCK
 62
     0
100
AcDbLine
 10
3191.114142510395
 20
6187.588656294197
 30
0.0
 11
3199.152618210395
 21
6157.588656294197
 31
0.0
  0
LINE
  5
B8B
330
1F
100
AcDbEntity
  8
STR
  6
BYBLOCK
 62
     0
100
AcDbLine
 10
3191.114142510395
 20
6187.588656294197
 30
0.0
 11
3191.114142510395
 21
6157.588656294197
 31
0.0
  0
VIEWPORT
  5
80E
102
{ACAD_XDICTIONARY
360
A90
102
}
330
50
100
AcDbEntity
 67
     1
  8
0
 62
     2
100
AcDbViewport
 10
99.11291408538819
 20
142.5680856704711
 30
0.0
 40
433.4813336928751
 41
314.1924854736328
 68
     1
 69
     1
1001
ACAD
1000
MVIEW
1002
{
1070
    16
1010
0.0
1020
0.0
1030
0.0
1010
0.0
1020
0.0
1030
1.0
1040
0.0
1040
314.1924854736328
1040
99.11291408538819
1040
142.5680856704711
1040
50.0
1040
0.0
1040
0.0
1070
     0
1070
  1000
1070
     1
1070
     1
1070
     0
1070
     0
1070
     0
1070
     0
1040
0.0
1040
0.0
1040
0.0
1040
10.0
1040
10.0
1040
10.0
1040
10.0
1070
     0
1002
{
1002
}
1002
}
  0
VIEWPORT
  5
810
102
{ACAD_XDICTIONARY
360
A92
102
}
330
50
100
AcDbEntity
 67
     1
  8
BMK
 62
     2
100
AcDbViewport
 10
97.28234466310352
 20
141.3048717433319
 30
0.0
 40
201.5178549030021
 41
293.6021610803487
 68
     2
 69
     2
1001
ACAD
1000
MVIEW
1002
{
1070
    16
1010
0.0
1020
0.0
1030
0.0
1010
0.0
1020
0.0
1030
1.0
1040
0.0
1040
8808.064832410464
1040
2222.368571044469
1040
4346.756680653015
1040
50.0
1040
0.0
1040
0.0
1070
     0
1070
  1000
1070
     1
1070
     3
1070
     0
1070
     0
1070
     0
1070
     0
1040
0.0
1040
0.0
1040
0.0
1040
10.0
1040
10.0
1040
10.0
1040
10.0
1070
     0
1002
{
1002
}
1002
}
  0
TEXT
  5
81F
330
50
100
AcDbEntity
 67
     1
  8
BMK
 62
     0
100
AcDbText
 10
90.13270387442602
 20
274.8578294321589
 30
0.0
 40
5.0
  1
1/30
100
AcDbText
  0
ENDSEC
  0
SECTION
  2
OBJECTS
  0
DICTIONARY
  5
C
330
0
100
AcDbDictionary
  3
ACAD_COLOR
350
6B
  3
ACAD_GROUP
350
D
  3
ACAD_IMAGE_DICT
350
87
  3
ACAD_IMAGE_VARS
350
88
  3
ACAD_LAYOUT
350
1A
  3
ACAD_MATERIAL
350
6A
  3
ACAD_MLINESTYLE
350
17
  3
ACAD_PLOTSETTINGS
350
19
  3
ACAD_PLOTSTYLENAME
350
E
  3
ACDBHEADERROUNDTRIPXREC
350
BCB
  3
ACDBVARIABLEDICTIONARY
350
5E
  0
DICTIONARY
  5
1F4
330
1F
100
AcDbDictionary
280
     1
  3
ACAD_LAYOUTSELFREF
360
BEC
  3
ACAD_SORTENTS
360
1F5
  0
DICTIONARY
  5
A9A
330
50
100
AcDbDictionary
280
     1
  3
ACAD_LAYOUTSELFREF
360
BED
  0
DICTIONARY
  5
A90
330
80E
100
AcDbDictionary
280
     1
  3
ACAD_XREC_ROUNDTRIP
360
A91
  0
DICTIONARY
  5
A92
330
810
100
AcDbDictionary
280
     1
  3
ACAD_XREC_ROUNDTRIP
360
A93
  0
DICTIONARY
  5
6B
102
{ACAD_REACTORS
330
C
102
}
330
C
100
AcDbDictionary
  0
DICTIONARY
  5
D
102
{ACAD_REACTORS
330
C
102
}
330
C
100
AcDbDictionary
  0
DICTIONARY
  5
87
102
{ACAD_REACTORS
330
C
102
}
330
C
100
AcDbDictionary
  3
NAN
350
89
  0
RASTERVARIABLES
  5
88
102
{ACAD_REACTORS
330
C
102
}
330
C
100
AcDbRasterVariables
 90
        0
 70
     1
 71
     1
 72
     1
  0
DICTIONARY
  5
1A
102
{ACAD_REACTORS
330
C
102
}
330
C
100
AcDbDictionary
  0
DICTIONARY
  5
6A
102
{ACAD_REACTORS
330
C
102
}
330
C
100
AcDbDictionary
  0
DICTIONARY
  5
17
102
{ACAD_REACTORS
330
C
102
}
330
C
100
AcDbDictionary
  3
STANDARD
350
18
  0
DICTIONARY
  5
19
102
{ACAD_REACTORS
330
C
102
}
330
C
100
AcDbDictionary
  0
ACDBDICTIONARYWDFLT
  5
E
102
{ACAD_REACTORS
330
C
102
}
330
C
100
AcDbDictionary
281
     1
  3
Normal
350
F
100
AcDbDictionaryWithDefault
340
F
  0
DICTIONARY
  5
BCB
102
{ACAD_REACTORS
330
C
102
}
330
C
100
AcDbDictionary
  3
CEPSNTYPE
350
BD5
  3
DIMSTYLEDATA
350
BD9
  3
FINGERPRINTGUID
350
BD6
  3
HYPERLINKBASE
350
BCE
  3
INSUNITS
350
BD4
  3
LAYOUTDICT
350
BD0
  3
LWETCUNION
350
BD3
  3
PLOTSETDICT
350
BD1
  3
PLOTSTYLNAMDICT
350
BD2
  3
PSVPSCALE
350
BD8
  3
PUCSBASE
350
BDC
  3
PUCSORGBACK
350
BE2
  3
PUCSORGBOTTOM
350
BDE
  3
PUCSORGFRONT
350
BE1
  3
PUCSORGLEFT
350
BDF
  3
PUCSORGRIGHT
350
BE0
  3
PUCSORGTOP
350
BDD
  3
PUCSORTHOREF
350
BDA
  3
PUCSORTHOVIEW
350
BDB
  3
STYLESHEET
350
BCF
  3
TSTACKALIGN
350
BCC
  3
TSTACKSIZE
350
BCD
  3
UCSBASE
350
BE5
  3
UCSORGBACK
350
BEB
  3
UCSORGBOTTOM
350
BE7
  3
UCSORGFRONT
350
BEA
  3
UCSORGLEFT
350
BE8
  3
UCSORGRIGHT
350
BE9
  3
UCSORGTOP
350
BE6
  3
UCSORTHOREF
350
BE3
  3
UCSORTHOVIEW
350
BE4
  3
VERSIONGUID
350
BD7
  0
DICTIONARY
  5
5E
102
{ACAD_REACTORS
330
C
102
}
330
C
100
AcDbDictionary
  3
DIMASSOC
350
5F
  3
HIDETEXT
350
63
  3
PROJECTNAME
350
92C
  0
XRECORD
  5
BEC
102
{ACAD_REACTORS
330
1F4
102
}
330
1F4
100
AcDbXrecord
340
1F
  0
SORTENTSTABLE
  5
1F5
102
{ACAD_REACTORS
330
1F4
102
}
330
1F4
100
AcDbSortentsTable
330
1F
331
203
  5
203
331
2EA
  5
2EA
331
194
  5
194
331
213
  5
213
331
11D
  5
11D
331
19C
  5
19C
331
CE
  5
CE
331
16D
  5
16D
331
175
  5
175
331
D6
  5
D6
331
1EC
  5
1EC
331
2BB
  5
2BB
331
DE
  5
DE
331
17D
  5
17D
331
1FC
  5
1FC
331
204
  5
204
331
195
  5
195
331
116
  5
116
331
20C
  5
20C
331
2EB
  5
2EB
331
19D
  5
19D
331
214
  5
214
331
CF
  5
CF
331
16E
  5
16E
331
1E5
  5
1E5
331
D7
  5
D7
331
1ED
  5
1ED
331
DF
  5
DF
331
17E
  5
17E
331
1FD
  5
1FD
331
E7
  5
E7
331
205
  5
205
331
2EC
  5
2EC
331
117
  5
117
331
196
  5
196
331
20D
  5
20D
331
19E
  5
19E
331
C6
  5
C6
331
16F
  5
16F
331
D0
  5
D0
331
1E6
  5
1E6
331
177
  5
177
331
D8
  5
D8
331
1EE
  5
1EE
331
2BD
  5
2BD
331
E0
  5
E0
331
17F
  5
17F
331
1F6
  5
1F6
331
1FE
  5
1FE
331
206
  5
206
331
18F
  5
18F
331
2E5
  5
2E5
331
197
  5
197
331
118
  5
118
331
20E
  5
20E
331
2ED
  5
2ED
331
A7
  5
A7
331
26E
  5
26E
331
C7
  5
C7
331
D1
  5
D1
331
1E7
  5
1E7
331
1EF
  5
1EF
331
D9
  5
D9
331
178
  5
178
331
2B6
  5
2B6
331
1F7
  5
1F7
331
1FF
  5
1FF
331
101
  5
101
331
111
  5
111
331
190
  5
190
331
207
  5
207
331
2E6
  5
2E6
331
119
  5
119
331
20F
  5
20F
331
A8
  5
A8
331
26F
  5
26F
331
171
  5
171
331
D2
  5
D2
331
1E8
  5
1E8
331
2B7
  5
2B7
331
179
  5
179
331
1F0
  5
1F0
331
2BF
  5
2BF
331
E2
  5
E2
331
181
  5
181
331
1F8
  5
1F8
331
200
  5
200
331
102
  5
102
331
191
  5
191
331
112
  5
112
331
208
  5
208
331
2E7
  5
2E7
331
11A
  5
11A
331
A9
  5
A9
331
270
  5
270
331
D3
  5
D3
331
1E9
  5
1E9
331
1F1
  5
1F1
331
17A
  5
17A
331
2B8
  5
2B8
331
182
  5
182
331
E3
  5
E3
331
1F9
  5
1F9
331
201
  5
201
331
103
  5
103
331
113
  5
113
331
209
  5
209
331
2E8
  5
2E8
331
11B
  5
11B
331
19A
  5
19A
331
AA
  5
AA
331
C2
  5
C2
331
CC
  5
CC
331
173
  5
173
331
1EA
  5
1EA
331
2B9
  5
2B9
331
17B
  5
17B
331
DC
  5
DC
331
1F2
  5
1F2
331
2C1
  5
2C1
331
183
  5
183
331
1FA
  5
1FA
331
9B
  5
9B
331
202
  5
202
331
104
  5
104
331
193
  5
193
331
114
  5
114
331
20A
  5
20A
331
2E9
  5
2E9
331
19B
  5
19B
331
11C
  5
11C
331
212
  5
212
331
15C
  5
15C
331
AB
  5
AB
331
CD
  5
CD
331
16C
  5
16C
331
D5
  5
D5
331
174
  5
174
331
1EB
  5
1EB
331
1F3
  5
1F3
331
DD
  5
DD
331
1FB
  5
1FB
  0
XRECORD
  5
BED
102
{ACAD_REACTORS
330
A9A
102
}
330
A9A
100
AcDbXrecord
340
50
  0
XRECORD
  5
A91
102
{ACAD_REACTORS
330
A90
102
}
330
A90
100
AcDbXrecord
102
SHADEPLOT
 70
     0
  0
XRECORD
  5
A93
102
{ACAD_REACTORS
330
A92
102
}
330
A92
100
AcDbXrecord
102
SHADEPLOT
 70
     0
  0
IMAGEDEF
  5
89
102
{ACAD_REACTORS
330
87
102
}
330
87
100
AcDbRasterImageDef
 90
        0
  1
C:\DATE\NAN.tif
 10
2773.0
 20
4352.0
 11
0.0635
 21
0.0635
280
     1
281
     5
  0
MLINESTYLE
  5
18
102
{ACAD_REACTORS
330
17
102
}
330
17
100
AcDbMlineStyle
  2
STANDARD
 70
     0
  3

 62
   256
 51
90.0
 52
90.0
 71
     2
 49
0.5
 62
   256
  6
BYLAYER
 49
-0.5
 62
   256
  6
BYLAYER
  0
ACDBPLACEHOLDER
  5
F
102
{ACAD_REACTORS
330
E
102
}
330
E
100
AcDbPlaceHolder
280
     0
  0
XRECORD
  5
BD5
102
{ACAD_REACTORS
330
BCB
102
}
330
BCB
100
AcDbXrecord
 90
        0
  0
XRECORD
  5
BD9
102
{ACAD_REACTORS
330
BCB
102
}
330
BCB
100
AcDbXrecord
1000
DSTYLE
1002
{
1070
   278
 70
    44
1070
   341
340
390
1070
   342
340
390
1002
}
  0
XRECORD
  5
BD6
102
{ACAD_REACTORS
330
BCB
102
}
330
BCB
100
AcDbXrecord
  1
{FDEAD578-A652-11D2-9A35-0060089B3A3F}
  0
XRECORD
  5
BCE
102
{ACAD_REACTORS
330
BCB
102
}
330
BCB
100
AcDbXrecord
  1

  0
XRECORD
  5
BD4
102
{ACAD_REACTORS
330
BCB
102
}
330
BCB
100
AcDbXrecord
 90
        4
  0
XRECORD
  5
BD0
102
{ACAD_REACTORS
330
BCB
102
}
330
BCB
100
AcDbXrecord
340
1A
  0
XRECORD
  5
BD3
102
{ACAD_REACTORS
330
BCB
102
}
330
BCB
100
AcDbXrecord
 90
    10781
  0
XRECORD
  5
BD1
102
{ACAD_REACTORS
330
BCB
102
}
330
BCB
100
AcDbXrecord
340
19
  0
XRECORD
  5
BD2
102
{ACAD_REACTORS
330
BCB
102
}
330
BCB
100
AcDbXrecord
340
E
  0
XRECORD
  5
BD8
102
{ACAD_REACTORS
330
BCB
102
}
330
BCB
100
AcDbXrecord
 40
0.0
  0
XRECORD
  5
BDC
102
{ACAD_REACTORS
330
BCB
102
}
330
BCB
100
AcDbXrecord
340
0
  0
XRECORD
  5
BE2
102
{ACAD_REACTORS
330
BCB
102
}
330
BCB
100
AcDbXrecord
 10
0.0
 20
0.0
 30
0.0
  0
XRECORD
  5
BDE
102
{ACAD_REACTORS
330
BCB
102
}
330
BCB
100
AcDbXrecord
 10
0.0
 20
0.0
 30
0.0
  0
XRECORD
  5
BE1
102
{ACAD_REACTORS
330
BCB
102
}
330
BCB
100
AcDbXrecord
 10
0.0
 20
0.0
 30
0.0
  0
XRECORD
  5
BDF
102
{ACAD_REACTORS
330
BCB
102
}
330
BCB
100
AcDbXrecord
 10
0.0
 20
0.0
 30
0.0
  0
XRECORD
  5
BE0
102
{ACAD_REACTORS
330
BCB
102
}
330
BCB
100
AcDbXrecord
 10
0.0
 20
0.0
 30
0.0
  0
XRECORD
  5
BDD
102
{ACAD_REACTORS
330
BCB
102
}
330
BCB
100
AcDbXrecord
 10
0.0
 20
0.0
 30
0.0
  0
XRECORD
  5
BDA
102
{ACAD_REACTORS
330
BCB
102
}
330
BCB
100
AcDbXrecord
340
0
  0
XRECORD
  5
BDB
102
{ACAD_REACTORS
330
BCB
102
}
330
BCB
100
AcDbXrecord
 70
     0
  0
XRECORD
  5
BCF
102
{ACAD_REACTORS
330
BCB
102
}
330
BCB
100
AcDbXrecord
  1

  0
XRECORD
  5
BCC
102
{ACAD_REACTORS
330
BCB
102
}
330
BCB
100
AcDbXrecord
 90
        1
  0
XRECORD
  5
BCD
102
{ACAD_REACTORS
330
BCB
102
}
330
BCB
100
AcDbXrecord
 90
       70
  0
XRECORD
  5
BE5
102
{ACAD_REACTORS
330
BCB
102
}
330
BCB
100
AcDbXrecord
340
0
  0
XRECORD
  5
BEB
102
{ACAD_REACTORS
330
BCB
102
}
330
BCB
100
AcDbXrecord
 10
0.0
 20
0.0
 30
0.0
  0
XRECORD
  5
BE7
102
{ACAD_REACTORS
330
BCB
102
}
330
BCB
100
AcDbXrecord
 10
0.0
 20
0.0
 30
0.0
  0
XRECORD
  5
BEA
102
{ACAD_REACTORS
330
BCB
102
}
330
BCB
100
AcDbXrecord
 10
0.0
 20
0.0
 30
0.0
  0
XRECORD
  5
BE8
102
{ACAD_REACTORS
330
BCB
102
}
330
BCB
100
AcDbXrecord
 10
0.0
 20
0.0
 30
0.0
  0
XRECORD
  5
BE9
102
{ACAD_REACTORS
330
BCB
102
}
330
BCB
100
AcDbXrecord
 10
0.0
 20
0.0
 30
0.0
  0
XRECORD
  5
BE6
102
{ACAD_REACTORS
330
BCB
102
}
330
BCB
100
AcDbXrecord
 10
0.0
 20
0.0
 30
0.0
  0
XRECORD
  5
BE3
102
{ACAD_REACTORS
330
BCB
102
}
330
BCB
100
AcDbXrecord
340
0
  0
XRECORD
  5
BE4
102
{ACAD_REACTORS
330
BCB
102
}
330
BCB
100
AcDbXrecord
 70
     0
  0
XRECORD
  5
BD7
102
{ACAD_REACTORS
330
BCB
102
}
330
BCB
100
AcDbXrecord
  1
{C1EFFBD1-DA59-444C-B84B-3DC67B5C2BE8}
  0
DICTIONARYVAR
  5
5F
102
{ACAD_REACTORS
330
5E
102
}
330
5E
100
DictionaryVariables
280
     0
  1
2
  0
DICTIONARYVAR
  5
63
102
{ACAD_REACTORS
330
5E
102
}
330
5E
100
DictionaryVariables
280
     0
  1
1
  0
DICTIONARYVAR
  5
92C
102
{ACAD_REACTORS
330
5E
102
}
330
5E
100
DictionaryVariables
280
     0
  1

  0
ENDSEC
  0
EOF
