  0
SECTION
  2
HEADER
  9
$ACADVER
  1
AC1009
  9
$INSBASE
 10
0
 20
0
 30
0
  9
$EXTMIN
 10
0
 20
0
  9
$EXTMAX
 10
8910
 20
6300
  9
$LIMMIN
 10
0
 20
0
  9
$LIMMAX
 10
8910
 20
6300
  9
$LTSCALE
 40
30
  0
ENDSEC
  0
SECTION
  2
TABLES
  0
TABLE
  2
LTYPE
 70
     9
  0
LTYPE
  2
CONTINUOUS
 70
    64
  3
実線
 72
    65
 73
     0
 40
0.0
  0
LTYPE
  2
DASHED1
 70
    64
  3
--  --  --  --  --  --  --  --  
 72
    65
 73
     2
 40
2.5
 49
1.25
 49
-1.25
  0
LTYPE
  2
DASHED2
 70
    64
  3
----    ----    ----    ----    
 72
    65
 73
     2
 40
5.0
 49
2.5
 49
-2.5
  0
LTYPE
  2
DASHED3
 70
    64
  3
------  ------  ------  ------  
 72
    65
 73
     2
 40
5.0
 49
3.75
 49
-1.25
  0
LTYPE
  2
CENTER1
 70
    64
  3
----- - ----- - ----- - ----- - 
 72
    65
 73
     4
 40
10.0
 49
6.25
 49
-1.25
 49
1.25
 49
-1.25
  0
LTYPE
  2
CENTER2
 70
    64
  3
----------  --  ----------  --  
 72
    65
 73
     4
 40
20.0
 49
12.5
 49
-2.5
 49
2.5
 49
-2.5
  0
LTYPE
  2
PHANTOM1
 70
    64
  3
--- - - --- - - --- - - --- - - 
 72
    65
 73
     6
 40
10.0
 49
3.25
 49
-1.25
 49
1.25
 49
-1.25
 49
1.25
 49
-1.25
  0
LTYPE
  2
PHANTOM2
 70
    64
  3
--------  -  -  --------  -  -  
 72
    65
 73
     6
 40
20.0
 49
10.0
 49
-2.5
 49
1.25
 49
-2.5
 49
1.25
 49
-2.5
  0
LTYPE
  2
DOT
 70
    64
  3
-   -   -   -   -   -   -   -   
 72
    65
 73
     2
 40
2.5
 49
0.625
 49
-1.875
  0
LTYPE
  2
DUMMY
 70
    64
  3
ダミー
 72
    65
 73
     0
 40
0.0
  0
LTYPE
  2
RAND1
 70
    64
  3
----- - ----- - ----- - ----- - 
 72
    65
 73
     4
 40
10.0
 49
6.25
 49
-1.25
 49
1.25
 49
-1.25
  0
LTYPE
  2
RAND2
 70
    64
  3
----------  --  ----------  --  
 72
    65
 73
     4
 40
20.0
 49
12.5
 49
-2.5
 49
2.5
 49
-2.5
  0
LTYPE
  2
RAND3
 70
    64
  3
--- - - --- - - --- - - --- - - 
 72
    65
 73
     6
 40
10.0
 49
3.25
 49
-1.25
 49
1.25
 49
-1.25
 49
1.25
 49
-1.25
  0
LTYPE
  2
RAND4
 70
    64
  3
--------  -  -  --------  -  -  
 72
    65
 73
     6
 40
20.0
 49
10.0
 49
-2.5
 49
1.25
 49
-2.5
 49
1.25
 49
-2.5
  0
LTYPE
  2
RAND5
 70
    64
  3
----- - ----- - ----- - ----- - 
 72
    65
 73
     4
 40
10.0
 49
6.25
 49
-1.25
 49
1.25
 49
-1.25
  0
LTYPE
  2
LONG1
 70
    64
  3
----------  --  ----------  --  
 72
    65
 73
     4
 40
20.0
 49
12.5
 49
-2.5
 49
2.5
 49
-2.5
  0
LTYPE
  2
LONG2
 70
    64
  3
--- - - --- - - --- - - --- - - 
 72
    65
 73
     6
 40
10.0
 49
3.25
 49
-1.25
 49
1.25
 49
-1.25
 49
1.25
 49
-1.25
  0
LTYPE
  2
LONG3
 70
    64
  3
--------  -  -  --------  -  -  
 72
    65
 73
     6
 40
20.0
 49
10.0
 49
-2.5
 49
1.25
 49
-2.5
 49
1.25
 49
-2.5
  0
LTYPE
  2
LONG4
 70
    64
  3
----- - ----- - ----- - ----- - 
 72
    65
 73
     4
 40
10.0
 49
6.25
 49
-1.25
 49
1.25
 49
-1.25
  0
LTYPE
  2
LONG5
 70
    64
  3
----------  --  ----------  --  
 72
    65
 73
     4
 40
20.0
 49
12.5
 49
-2.5
 49
2.5
 49
-2.5
  0
ENDTAB
  0
TABLE
  2
STYLE
  5
3
100
AcDbSymbolTable
 70
     1
  0
STYLE
  5
10
100
AcDbSymbolTableRecord
100
AcDbTextStyleTableRecord
  2
STANDARD
 70
     0
 40
0.0
 41
1.0
 50
0.0
 71
     0
 42
0.2
  3
txt
  4
bigfont.shx
  0
STYLE
  5
26
100
AcDbSymbolTableRecord
100
AcDbTextStyleTableRecord
  2
TATEGAKI
 70
    68
 40
0.0
 41
1.0
 50
0.0
 71
     0
 42
1.0
  3
txt
  4
bigfont.shx
  0
ENDTAB
  0
TABLE
  2
LAYER
 70
    4
  0
LAYER
  2
_0-0_0
 70
   64
 62
    7
  6
CONTINUOUS
  0
LAYER
  2
_0-1_BMK
 70
   64
 62
    7
  6
CONTINUOUS
  0
LAYER
  2
_0-3_STR
 70
   64
 62
    7
  6
CONTINUOUS
  0
LAYER
  2
ADD_LINE
 70
   64
 62
    7
  6
CONTINUOUS
  0
ENDTAB
  0
ENDSEC
  0
SECTION
  2
BLOCKS
  0
ENDSEC
  0
SECTION
  2
ENTITIES
  0
LINE
  8
_0-3_STR
  6
CONTINUOUS
 62
    7
 10
3037.6768
 20
2846.5469
 11
3037.6768
 21
1980.6877
  0
LINE
  8
_0-3_STR
  6
CONTINUOUS
 62
    7
 10
2879.5161
 20
2012.8394
 11
2760.4615
 21
2012.8394
  0
LINE
  8
_0-3_STR
  6
CONTINUOUS
 62
    7
 10
2760.4615
 20
3460.0131
 11
2760.4615
 21
2012.8394
  0
LINE
  8
_0-3_STR
  6
CONTINUOUS
 62
    7
 10
2998.5707
 20
3460.0131
 11
2998.5707
 21
2012.8394
  0
LINE
  8
_0-3_STR
  6
CONTINUOUS
 62
    7
 10
6293.0502
 20
1984.6004
 11
5293.0502
 21
1984.6004
  0
LINE
  8
_0-1_BMK
  6
CENTER2
 62
    1
 10
4806.9254
 20
2985.0131
 11
2195.388
 21
2985.0131
  0
LINE
  8
_0-3_STR
  6
CONTINUOUS
 62
    7
 10
5982.17
 20
2456.2459
 11
5982.17
 21
1984.6004
  0
LINE
  8
_0-3_STR
  6
CONTINUOUS
 62
    7
 10
4625.0309
 20
1724.5822
 11
3325.0309
 21
1724.5822
  0
LINE
  8
_0-3_STR
  6
CONTINUOUS
 62
    7
 10
2760.4615
 20
3366.5256
 11
2577.8306
 21
3366.5256
  0
LINE
  8
_0-3_STR
  6
CONTINUOUS
 62
    7
 10
2577.8306
 20
3171.3995
 11
2760.4615
 21
3171.3995
  0
LINE
  8
_0-3_STR
  6
CONTINUOUS
 62
    7
 10
2577.8306
 20
3056.2559
 11
2760.4615
 21
3056.2559
  0
LINE
  8
_0-3_STR
  6
CONTINUOUS
 62
    7
 10
2577.8306
 20
2985.0131
 11
2760.4615
 21
2985.0131
  0
LINE
  8
_0-3_STR
  6
CONTINUOUS
 62
    7
 10
2577.8306
 20
2913.7702
 11
2760.4615
 21
2913.7702
  0
LINE
  8
_0-3_STR
  6
CONTINUOUS
 62
    7
 10
2760.4615
 20
3460.0131
 11
2805.1938
 21
3460.0131
  0
LINE
  8
_0-3_STR
  6
CONTINUOUS
 62
    7
 10
2879.5161
 20
3438.2088
 11
2805.1938
 21
3438.2088
  0
LINE
  8
_0-3_STR
  6
CONTINUOUS
 62
    7
 10
2879.5161
 20
3438.2088
 11
2953.8384
 21
3438.2088
  0
LINE
  8
_0-3_STR
  6
CONTINUOUS
 62
    7
 10
2998.5707
 20
3460.0131
 11
2953.8384
 21
3460.0131
  0
LINE
  8
_0-3_STR
  6
CONTINUOUS
 62
    7
 10
3068.0309
 20
3426.304
 11
2998.5707
 21
3426.304
  0
LINE
  8
_0-3_STR
  6
CONTINUOUS
 62
    7
 10
3068.0309
 20
3426.304
 11
3068.0309
 21
2699.6113
  0
LINE
  8
_0-3_STR
  6
CONTINUOUS
 62
    7
 10
3068.0309
 20
2699.6113
 11
3037.6768
 21
2699.6113
  0
LINE
  8
_0-3_STR
  6
CONTINUOUS
 62
    7
 10
2998.5707
 20
2846.5469
 11
3037.6768
 21
2846.5469
  0
LINE
  8
_0-1_BMK
  6
CENTER2
 62
    1
 10
5793.0502
 20
2573.5006
 11
5793.0502
 21
3558.7673
  0
LINE
  8
_0-1_BMK
  6
CENTER2
 62
    1
 10
5193.4695
 20
2985.0131
 11
6555.6082
 21
2985.0131
  0
LINE
  8
_0-3_STR
  6
CONTINUOUS
 62
    7
 10
5513.7787
 20
3460.0131
 11
5353.0502
 21
3333.2523
  0
LINE
  8
_0-3_STR
  6
CONTINUOUS
 62
    7
 10
5353.0502
 20
2689.9458
 11
5353.0502
 21
3333.2523
  0
LINE
  8
_0-3_STR
  6
CONTINUOUS
 62
    7
 10
6072.3217
 20
3460.0131
 11
6233.0502
 21
3333.2523
  0
LINE
  8
_0-3_STR
  6
CONTINUOUS
 62
    7
 10
6233.0502
 20
2689.9458
 11
6233.0502
 21
3333.2523
  0
CIRCLE
  8
_0-3_STR
  6
CONTINUOUS
 62
    7
 10
5793.0502
 20
2985.0131
 40
47.56389
  0
CIRCLE
  8
_0-3_STR
  6
CONTINUOUS
 62
    7
 10
5793.0502
 20
2985.0131
 40
143.38988
  0
CIRCLE
  8
_0-3_STR
  6
CONTINUOUS
 62
    7
 10
5793.0502
 20
2985.0131
 40
263.59021
  0
CIRCLE
  8
_0-3_STR
  6
CONTINUOUS
 62
    7
 10
5793.0502
 20
2985.0131
 40
381.51251
  0
LINE
  8
_0-3_STR
  6
CONTINUOUS
 62
    7
 10
5513.7787
 20
3460.0131
 11
6076.929
 21
3460.0131
  0
LINE
  8
_0-3_STR
  6
CONTINUOUS
 62
    7
 10
5715.8464
 20
3325.8071
 11
5715.8464
 21
3171.3995
  0
LINE
  8
_0-3_STR
  6
CONTINUOUS
 62
    7
 10
5870.254
 20
3325.8071
 11
5870.254
 21
3171.3995
  0
LINE
  8
_0-1_BMK
  6
CENTER2
 62
    1
 10
5908.6637
 20
3100.6266
 11
6051.6504
 21
3243.6133
  0
LINE
  8
_0-3_STR
  6
CONTINUOUS
 62
    7
 10
5353.0502
 20
2846.5469
 11
5437.5521
 21
2846.5469
  0
LINE
  8
_0-3_STR
  6
CONTINUOUS
 62
    7
 10
6148.5483
 20
2846.5469
 11
6233.0502
 21
2846.5469
  0
CIRCLE
  8
_0-3_STR
  6
CONTINUOUS
 62
    7
 10
5793.0502
 20
3248.6033
 40
57.203785
  0
LINE
  8
_0-3_STR
  6
CONTINUOUS
 62
    7
 10
5870.254
 20
3325.8071
 11
5715.8464
 21
3325.8071
  0
LINE
  8
_0-3_STR
  6
CONTINUOUS
 62
    7
 10
5497.4811
 20
3171.3995
 11
5606.6638
 21
3062.2169
  0
LINE
  8
_0-3_STR
  6
CONTINUOUS
 62
    7
 10
5606.6638
 20
3280.5821
 11
5715.8464
 21
3171.3995
  0
CIRCLE
  8
_0-3_STR
  6
CONTINUOUS
 62
    7
 10
5606.6638
 20
3171.3995
 40
57.203785
  0
LINE
  8
_0-3_STR
  6
CONTINUOUS
 62
    7
 10
5606.6638
 20
3280.5821
 11
5497.4811
 21
3171.3995
  0
LINE
  8
_0-3_STR
  6
CONTINUOUS
 62
    7
 10
5452.2562
 20
2907.8093
 11
5606.6638
 21
2907.8093
  0
LINE
  8
_0-3_STR
  6
CONTINUOUS
 62
    7
 10
5452.2562
 20
3062.2169
 11
5606.6638
 21
3062.2169
  0
CIRCLE
  8
_0-3_STR
  6
CONTINUOUS
 62
    7
 10
5529.46
 20
2985.0131
 40
57.203785
  0
LINE
  8
_0-3_STR
  6
CONTINUOUS
 62
    7
 10
5452.2562
 20
3062.2169
 11
5452.2562
 21
2907.8093
  0
LINE
  8
_0-3_STR
  6
CONTINUOUS
 62
    7
 10
5606.6638
 20
2689.444
 11
5715.8464
 21
2798.6266
  0
LINE
  8
_0-3_STR
  6
CONTINUOUS
 62
    7
 10
5497.4811
 20
2798.6266
 11
5606.6638
 21
2907.8093
  0
CIRCLE
  8
_0-3_STR
  6
CONTINUOUS
 62
    7
 10
5606.6638
 20
2798.6266
 40
57.203785
  0
LINE
  8
_0-3_STR
  6
CONTINUOUS
 62
    7
 10
5497.4811
 20
2798.6266
 11
5606.6638
 21
2689.444
  0
LINE
  8
_0-3_STR
  6
CONTINUOUS
 62
    7
 10
5870.254
 20
2644.2191
 11
5870.254
 21
2798.6266
  0
LINE
  8
_0-3_STR
  6
CONTINUOUS
 62
    7
 10
5715.8464
 20
2644.2191
 11
5715.8464
 21
2798.6266
  0
CIRCLE
  8
_0-3_STR
  6
CONTINUOUS
 62
    7
 10
5793.0502
 20
2721.4229
 40
57.203785
  0
LINE
  8
_0-3_STR
  6
CONTINUOUS
 62
    7
 10
6088.6193
 20
2798.6266
 11
5979.4366
 21
2907.8093
  0
LINE
  8
_0-3_STR
  6
CONTINUOUS
 62
    7
 10
5979.4366
 20
2689.444
 11
5870.254
 21
2798.6266
  0
CIRCLE
  8
_0-3_STR
  6
CONTINUOUS
 62
    7
 10
5979.4366
 20
2798.6266
 40
57.203785
  0
LINE
  8
_0-3_STR
  6
CONTINUOUS
 62
    7
 10
5979.4366
 20
2689.444
 11
6088.6193
 21
2798.6266
  0
LINE
  8
_0-3_STR
  6
CONTINUOUS
 62
    7
 10
6133.8442
 20
3062.2169
 11
5979.4366
 21
3062.2169
  0
LINE
  8
_0-3_STR
  6
CONTINUOUS
 62
    7
 10
6133.8442
 20
2907.8093
 11
5979.4366
 21
2907.8093
  0
CIRCLE
  8
_0-3_STR
  6
CONTINUOUS
 62
    7
 10
6056.6404
 20
2985.0131
 40
57.203785
  0
LINE
  8
_0-3_STR
  6
CONTINUOUS
 62
    7
 10
6133.8442
 20
2907.8093
 11
6133.8442
 21
3062.2169
  0
LINE
  8
_0-3_STR
  6
CONTINUOUS
 62
    7
 10
5979.4366
 20
3280.5821
 11
5870.254
 21
3171.3995
  0
LINE
  8
_0-3_STR
  6
CONTINUOUS
 62
    7
 10
6088.6193
 20
3171.3995
 11
5979.4366
 21
3062.2169
  0
CIRCLE
  8
_0-3_STR
  6
CONTINUOUS
 62
    7
 10
5979.4366
 20
3171.3995
 40
57.203785
  0
LINE
  8
_0-3_STR
  6
CONTINUOUS
 62
    7
 10
6088.6193
 20
3171.3995
 11
5979.4366
 21
3280.5821
  0
LINE
  8
_0-1_BMK
  6
CENTER2
 62
    1
 10
5677.4367
 20
3100.6266
 11
5534.45
 21
3243.6133
  0
LINE
  8
_0-1_BMK
  6
CENTER2
 62
    1
 10
5677.4367
 20
2869.3995
 11
5534.45
 21
2726.4129
  0
LINE
  8
_0-1_BMK
  6
CENTER2
 62
    1
 10
5908.6637
 20
2869.3995
 11
6051.6504
 21
2726.4129
  0
LINE
  8
_0-3_STR
  6
CONTINUOUS
 62
    7
 10
2760.4615
 20
3325.8071
 11
2577.8306
 21
3325.8071
  0
LINE
  8
_0-3_STR
  6
CONTINUOUS
 62
    7
 10
5715.8464
 20
3171.3995
 11
5606.6638
 21
3062.2169
  0
LINE
  8
_0-3_STR
  6
CONTINUOUS
 62
    7
 10
5606.6638
 20
3062.2169
 11
5606.6638
 21
2907.8093
  0
LINE
  8
_0-3_STR
  6
CONTINUOUS
 62
    7
 10
5606.6638
 20
2907.8093
 11
5715.8464
 21
2798.6266
  0
LINE
  8
_0-3_STR
  6
CONTINUOUS
 62
    7
 10
5715.8464
 20
2798.6266
 11
5870.254
 21
2798.6266
  0
LINE
  8
_0-3_STR
  6
CONTINUOUS
 62
    7
 10
5870.254
 20
2798.6266
 11
5979.4366
 21
2907.8093
  0
LINE
  8
_0-3_STR
  6
CONTINUOUS
 62
    7
 10
5979.4366
 20
2907.8093
 11
5979.4366
 21
3062.2169
  0
LINE
  8
_0-3_STR
  6
CONTINUOUS
 62
    7
 10
5979.4366
 20
3062.2169
 11
5870.254
 21
3171.3995
  0
LINE
  8
_0-3_STR
  6
CONTINUOUS
 62
    7
 10
5870.254
 20
3171.3995
 11
5715.8464
 21
3171.3995
  0
LINE
  8
_0-3_STR
  6
CONTINUOUS
 62
    7
 10
2721.3555
 20
2839.1046
 11
2728.7978
 21
2846.5469
  0
LINE
  8
_0-3_STR
  6
CONTINUOUS
 62
    7
 10
6526.2332
 20
2985.0131
 11
6525.6082
 21
2985.0131
  0
LINE
  8
_0-3_STR
  6
CONTINUOUS
 62
    7
 10
6263.6752
 20
3460.0131
 11
6710.2193
 21
3460.0131
  0
LINE
  8
_0-3_STR
  6
CONTINUOUS
 62
    7
 10
5353.0502
 20
3490.6381
 11
5353.0502
 21
3697.0673
  0
LINE
  8
_0-3_STR
  6
CONTINUOUS
 62
    7
 10
6233.0502
 20
3490.6381
 11
6233.0502
 21
3697.0673
  0
LINE
  8
_0-3_STR
  6
CONTINUOUS
 62
    7
 10
5373.0502
 20
3695.8173
 11
6213.0502
 21
3695.8173
  0
LINE
  8
_0-3_STR
  6
CONTINUOUS
 62
    7
 10
3625.6684
 20
2985.0131
 11
3845.4046
 21
2985.0131
  0
LINE
  8
_0-3_STR
  6
CONTINUOUS
 62
    7
 10
3068.0309
 20
3456.929
 11
3068.0309
 21
3651.9072
  0
LINE
  8
_0-3_STR
  6
CONTINUOUS
 62
    7
 10
2368.0309
 20
3456.929
 11
2368.0309
 21
3651.9072
  0
LINE
  8
_0-3_STR
  6
CONTINUOUS
 62
    7
 10
3048.0309
 20
3650.6572
 11
2388.0309
 21
3650.6572
  0
LINE
  8
_0-3_STR
  6
CONTINUOUS
 62
    7
 10
2388.0309
 20
3645.2982
 11
2368.0309
 21
3650.6572
  0
LINE
  8
_0-3_STR
  6
CONTINUOUS
 62
    7
 10
2368.0309
 20
3650.6572
 11
2388.0309
 21
3656.0162
  0
LINE
  8
_0-3_STR
  6
CONTINUOUS
 62
    7
 10
2368.0309
 20
3650.6572
 11
2388.0309
 21
3650.6572
  0
LINE
  8
_0-3_STR
  6
CONTINUOUS
 62
    7
 10
3048.0309
 20
3656.0162
 11
3068.0309
 21
3650.6572
  0
LINE
  8
_0-3_STR
  6
CONTINUOUS
 62
    7
 10
3068.0309
 20
3650.6572
 11
3048.0309
 21
3645.2982
  0
LINE
  8
_0-3_STR
  6
CONTINUOUS
 62
    7
 10
3068.0309
 20
3650.6572
 11
3048.0309
 21
3650.6572
  0
LINE
  8
_0-3_STR
  6
CONTINUOUS
 62
    7
 10
6213.0502
 20
3701.1763
 11
6233.0502
 21
3695.8173
  0
LINE
  8
_0-3_STR
  6
CONTINUOUS
 62
    7
 10
6233.0502
 20
3695.8173
 11
6213.0502
 21
3690.4583
  0
LINE
  8
_0-3_STR
  6
CONTINUOUS
 62
    7
 10
6233.0502
 20
3695.8173
 11
6213.0502
 21
3695.8173
  0
LINE
  8
_0-3_STR
  6
CONTINUOUS
 62
    7
 10
5373.0502
 20
3690.4583
 11
5353.0502
 21
3695.8173
  0
LINE
  8
_0-3_STR
  6
CONTINUOUS
 62
    7
 10
5353.0502
 20
3695.8173
 11
5373.0502
 21
3701.1763
  0
LINE
  8
_0-3_STR
  6
CONTINUOUS
 62
    7
 10
5353.0502
 20
3695.8173
 11
5373.0502
 21
3695.8173
  0
TEXT
  8
_0-3_STR
 62
    7
 10
2662.2163
 20
3662.2239
 40
90
 41
1
 50
0
  1
700
  0
TEXT
  8
_0-3_STR
 62
    7
 10
5715.3403
 20
3695.9228
 40
90
 41
1
 50
0
  1
880
  0
TEXT
  8
_0-3_STR
 62
    7
 10
2156.7322
 20
4646.2329
 40
120
 41
1
 50
0
  1
KYT-8090WH
  0
LINE
  8
_0-0_0
  6
CONTINUOUS
 62
    4
 10
6464.0878
 20
2984.0496
 11
6472.9223
 21
2984.0496
  0
LINE
  8
_0-3_STR
  6
CONTINUOUS
 62
    7
 10
5715.8464
 20
2644.5615
 11
5870.254
 21
2644.5615
  0
LINE
  8
_0-0_0
  6
CONTINUOUS
 62
    7
 10
5350.9474
 20
2687.2122
 11
5601.8457
 21
2475.1854
  0
LINE
  8
_0-0_0
  6
CONTINUOUS
 62
    7
 10
6230.8584
 20
2687.2122
 11
5983.4939
 21
2464.5841
  0
LINE
  8
_0-3_STR
  6
CONTINUOUS
 62
    7
 10
2577.8306
 20
2798.6266
 11
2721.3555
 21
2798.6266
  0
LINE
  8
_0-0_0
  6
CONTINUOUS
 62
    7
 10
5788.1475
 20
2605.8875
 11
5785.3556
 21
2605.8875
  0
LINE
  8
_0-0_0
  6
CONTINUOUS
 62
    7
 10
2721.3555
 20
2642.182
 11
2580.2701
 21
2642.182
  0
LINE
  8
_0-0_0
  6
CONTINUOUS
 62
    4
 10
6386.0869
 20
2985.1046
 11
6386.0869
 21
1730.1046
  0
LINE
  8
_0-0_0
  6
CONTINUOUS
 62
    4
 10
6386.0869
 20
2985.1046
 11
6393.8515
 21
2956.1268
  0
LINE
  8
_0-0_0
  6
CONTINUOUS
 62
    4
 10
6386.0869
 20
2985.1046
 11
6378.3223
 21
2956.1268
  0
LINE
  8
_0-0_0
  6
CONTINUOUS
 62
    4
 10
6386.0869
 20
1730.1046
 11
6393.8515
 21
1759.0823
  0
LINE
  8
_0-0_0
  6
CONTINUOUS
 62
    4
 10
6386.0869
 20
1730.1046
 11
6378.3223
 21
1759.0823
  0
LINE
  8
_0-0_0
  6
CONTINUOUS
 62
    4
 10
6386.0869
 20
2985.1046
 11
6410.5582
 21
2985.1046
  0
TEXT
  8
_0-0_0
 62
    7
 10
6371.0869
 20
2271.3546
 40
75
 41
1
 50
90
  1
1255
  0
LINE
  8
_0-3_STR
  6
CONTINUOUS
 62
    7
 10
2879.5161
 20
1980.4139
 11
2721.3555
 21
1980.4139
  0
LINE
  8
_0-1_BMK
  6
CENTER2
 62
    1
 10
2584.7378
 20
1902.0024
 11
2584.7378
 21
1634.6417
  0
LINE
  8
_0-0_0
  6
CONTINUOUS
 62
    4
 10
3771.3481
 20
1365.5891
 11
3817.2872
 21
1365.5891
  0
LINE
  8
_0-3_STR
  6
CONTINUOUS
 62
    7
 10
2879.5161
 20
1980.4139
 11
3037.6768
 21
1980.4139
  0
LINE
  8
_0-3_STR
  6
CONTINUOUS
 62
    7
 10
2525.0309
 20
1980.4139
 11
2525.0309
 21
1724.5822
  0
LINE
  8
_0-3_STR
  6
CONTINUOUS
 62
    7
 10
2525.0309
 20
1724.5822
 11
3325.0309
 21
1724.5822
  0
LINE
  8
_0-3_STR
  6
CONTINUOUS
 62
    7
 10
3325.0309
 20
1724.5822
 11
3325.0309
 21
1980.4139
  0
LINE
  8
_0-3_STR
  6
CONTINUOUS
 62
    7
 10
3325.0309
 20
1980.4139
 11
2525.0309
 21
1980.4139
  0
LINE
  8
_0-3_STR
  6
CONTINUOUS
 62
    7
 10
2470.342
 20
1971.6173
 11
2470.342
 21
1733.3788
  0
LINE
  8
_0-3_STR
  6
CONTINUOUS
 62
    7
 10
2470.342
 20
1733.3788
 11
2525.0309
 21
1733.3788
  0
LINE
  8
_0-3_STR
  6
CONTINUOUS
 62
    7
 10
2470.342
 20
1971.6173
 11
2525.0309
 21
1971.6173
  0
LINE
  8
_0-3_STR
  6
CONTINUOUS
 62
    7
 10
2368.0309
 20
1912.8572
 11
2470.342
 21
1912.8572
  0
LINE
  8
_0-3_STR
  6
CONTINUOUS
 62
    7
 10
2368.0309
 20
1912.8572
 11
2368.0309
 21
1865.5012
  0
LINE
  8
_0-3_STR
  6
CONTINUOUS
 62
    7
 10
2368.0309
 20
1865.5012
 11
2470.342
 21
1865.5012
  0
LINE
  8
_0-3_STR
  6
CONTINUOUS
 62
    7
 10
2368.0309
 20
1753.569
 11
2470.342
 21
1753.569
  0
LINE
  8
_0-3_STR
  6
CONTINUOUS
 62
    7
 10
2368.0309
 20
1800.9249
 11
2368.0309
 21
1753.569
  0
LINE
  8
_0-3_STR
  6
CONTINUOUS
 62
    7
 10
2368.0309
 20
1800.9249
 11
2470.342
 21
1800.9249
  0
LINE
  8
_0-3_STR
  6
CONTINUOUS
 62
    7
 10
2525.0309
 20
1939.9387
 11
3325.0309
 21
1939.9387
  0
LINE
  8
_0-3_STR
  6
CONTINUOUS
 62
    7
 10
2525.0309
 20
1765.0574
 11
3325.0309
 21
1765.0574
  0
LINE
  8
_0-3_STR
  6
CONTINUOUS
 62
    7
 10
2525.0309
 20
1808.886
 11
3325.0309
 21
1808.886
  0
LINE
  8
_0-3_STR
  6
CONTINUOUS
 62
    7
 10
3325.0309
 20
1954.5822
 11
4625.0309
 21
1954.5822
  0
LINE
  8
_0-3_STR
  6
CONTINUOUS
 62
    7
 10
4625.0309
 20
1954.5822
 11
4625.0309
 21
1724.5822
  0
LINE
  8
_0-3_STR
  6
CONTINUOUS
 62
    7
 10
4626.421
 20
1900.3827
 11
3325.0309
 21
1900.3827
  0
LINE
  8
_0-3_STR
  6
CONTINUOUS
 62
    7
 10
4626.421
 20
1778.7817
 11
3325.0309
 21
1778.7817
  0
LINE
  8
_0-3_STR
  6
CONTINUOUS
 62
    7
 10
4228.6559
 20
1954.5822
 11
4387.9659
 21
1954.5822
  0
LINE
  8
_0-3_STR
  6
CONTINUOUS
 62
    7
 10
4228.6559
 20
1724.5822
 11
4387.9659
 21
1724.5822
  0
LINE
  8
_0-3_STR
  6
CONTINUOUS
 62
    7
 10
4386.7159
 20
1934.5822
 11
4386.7159
 21
1744.5822
  0
LINE
  8
_0-3_STR
  6
CONTINUOUS
 62
    7
 10
3325.0309
 20
1693.3322
 11
3325.0309
 21
1467.6308
  0
LINE
  8
_0-3_STR
  6
CONTINUOUS
 62
    7
 10
4625.0309
 20
1693.3322
 11
4625.0309
 21
1467.6308
  0
LINE
  8
_0-3_STR
  6
CONTINUOUS
 62
    7
 10
3345.0309
 20
1468.8808
 11
4605.0309
 21
1468.8808
  0
LINE
  8
_0-3_STR
  6
CONTINUOUS
 62
    7
 10
2525.0309
 20
1693.9572
 11
2525.0309
 21
1467.6308
  0
LINE
  8
_0-3_STR
  6
CONTINUOUS
 62
    7
 10
3325.0309
 20
1693.9572
 11
3325.0309
 21
1467.6308
  0
LINE
  8
_0-3_STR
  6
CONTINUOUS
 62
    7
 10
2545.0309
 20
1468.8808
 11
3305.0309
 21
1468.8808
  0
LINE
  8
_0-3_STR
  6
CONTINUOUS
 62
    7
 10
2368.0309
 20
1693.3322
 11
2368.0309
 21
1467.6308
  0
LINE
  8
_0-3_STR
  6
CONTINUOUS
 62
    7
 10
2525.0309
 20
1693.3322
 11
2525.0309
 21
1467.6308
  0
LINE
  8
_0-3_STR
  6
CONTINUOUS
 62
    7
 10
2388.0309
 20
1468.8808
 11
2505.0309
 21
1468.8808
  0
LINE
  8
_0-3_STR
  6
CONTINUOUS
 62
    7
 10
2368.0309
 20
1693.9572
 11
2368.0309
 21
1365.0777
  0
LINE
  8
_0-3_STR
  6
CONTINUOUS
 62
    7
 10
4625.0309
 20
1693.9572
 11
4625.0309
 21
1365.0777
  0
LINE
  8
_0-3_STR
  6
CONTINUOUS
 62
    7
 10
2388.0309
 20
1366.3277
 11
4605.0309
 21
1366.3277
  0
LINE
  8
_0-3_STR
  6
CONTINUOUS
 62
    7
 10
3625.6684
 20
1724.5822
 11
3845.4046
 21
1724.5822
  0
LINE
  8
_0-3_STR
  6
CONTINUOUS
 62
    7
 10
4605.0309
 20
1371.6867
 11
4625.0309
 21
1366.3277
  0
LINE
  8
_0-3_STR
  6
CONTINUOUS
 62
    7
 10
4625.0309
 20
1366.3277
 11
4605.0309
 21
1360.9688
  0
LINE
  8
_0-3_STR
  6
CONTINUOUS
 62
    7
 10
4625.0309
 20
1366.3277
 11
4605.0309
 21
1366.3277
  0
LINE
  8
_0-3_STR
  6
CONTINUOUS
 62
    7
 10
2388.0309
 20
1360.9688
 11
2368.0309
 21
1366.3277
  0
LINE
  8
_0-3_STR
  6
CONTINUOUS
 62
    7
 10
2368.0309
 20
1366.3277
 11
2388.0309
 21
1371.6867
  0
LINE
  8
_0-3_STR
  6
CONTINUOUS
 62
    7
 10
2368.0309
 20
1366.3277
 11
2388.0309
 21
1366.3277
  0
LINE
  8
_0-3_STR
  6
CONTINUOUS
 62
    7
 10
2505.0309
 20
1474.2397
 11
2525.0309
 21
1468.8808
  0
LINE
  8
_0-3_STR
  6
CONTINUOUS
 62
    7
 10
2525.0309
 20
1468.8808
 11
2505.0309
 21
1463.5218
  0
LINE
  8
_0-3_STR
  6
CONTINUOUS
 62
    7
 10
2525.0309
 20
1468.8808
 11
2505.0309
 21
1468.8808
  0
LINE
  8
_0-3_STR
  6
CONTINUOUS
 62
    7
 10
2388.0309
 20
1463.5218
 11
2368.0309
 21
1468.8808
  0
LINE
  8
_0-3_STR
  6
CONTINUOUS
 62
    7
 10
2368.0309
 20
1468.8808
 11
2388.0309
 21
1474.2397
  0
LINE
  8
_0-3_STR
  6
CONTINUOUS
 62
    7
 10
2368.0309
 20
1468.8808
 11
2388.0309
 21
1468.8808
  0
LINE
  8
_0-3_STR
  6
CONTINUOUS
 62
    7
 10
3305.0309
 20
1474.2397
 11
3325.0309
 21
1468.8808
  0
LINE
  8
_0-3_STR
  6
CONTINUOUS
 62
    7
 10
3325.0309
 20
1468.8808
 11
3305.0309
 21
1463.5218
  0
LINE
  8
_0-3_STR
  6
CONTINUOUS
 62
    7
 10
3325.0309
 20
1468.8808
 11
3305.0309
 21
1468.8808
  0
LINE
  8
_0-3_STR
  6
CONTINUOUS
 62
    7
 10
2545.0309
 20
1463.5218
 11
2525.0309
 21
1468.8808
  0
LINE
  8
_0-3_STR
  6
CONTINUOUS
 62
    7
 10
2525.0309
 20
1468.8808
 11
2545.0309
 21
1474.2397
  0
LINE
  8
_0-3_STR
  6
CONTINUOUS
 62
    7
 10
2525.0309
 20
1468.8808
 11
2545.0309
 21
1468.8808
  0
LINE
  8
_0-3_STR
  6
CONTINUOUS
 62
    7
 10
4605.0309
 20
1474.2397
 11
4625.0309
 21
1468.8808
  0
LINE
  8
_0-3_STR
  6
CONTINUOUS
 62
    7
 10
4625.0309
 20
1468.8808
 11
4605.0309
 21
1463.5218
  0
LINE
  8
_0-3_STR
  6
CONTINUOUS
 62
    7
 10
4625.0309
 20
1468.8808
 11
4605.0309
 21
1468.8808
  0
LINE
  8
_0-3_STR
  6
CONTINUOUS
 62
    7
 10
3345.0309
 20
1463.5218
 11
3325.0309
 21
1468.8808
  0
LINE
  8
_0-3_STR
  6
CONTINUOUS
 62
    7
 10
3325.0309
 20
1468.8808
 11
3345.0309
 21
1474.2397
  0
LINE
  8
_0-3_STR
  6
CONTINUOUS
 62
    7
 10
3325.0309
 20
1468.8808
 11
3345.0309
 21
1468.8808
  0
LINE
  8
_0-3_STR
  6
CONTINUOUS
 62
    7
 10
4392.0748
 20
1744.5822
 11
4386.7159
 21
1724.5822
  0
LINE
  8
_0-3_STR
  6
CONTINUOUS
 62
    7
 10
4386.7159
 20
1724.5822
 11
4381.3569
 21
1744.5822
  0
LINE
  8
_0-3_STR
  6
CONTINUOUS
 62
    7
 10
4386.7159
 20
1724.5822
 11
4386.7159
 21
1744.5822
  0
LINE
  8
_0-3_STR
  6
CONTINUOUS
 62
    7
 10
4381.3569
 20
1934.5822
 11
4386.7159
 21
1954.5822
  0
LINE
  8
_0-3_STR
  6
CONTINUOUS
 62
    7
 10
4386.7159
 20
1954.5822
 11
4392.0748
 21
1934.5822
  0
LINE
  8
_0-3_STR
  6
CONTINUOUS
 62
    7
 10
4386.7159
 20
1954.5822
 11
4386.7159
 21
1934.5822
  0
LINE
  8
_0-3_STR
  6
CONTINUOUS
 62
    7
 10
2545.9644
 20
2079.8346
 11
2623.5112
 21
2079.8346
  0
LINE
  8
_0-3_STR
  6
CONTINUOUS
 62
    7
 10
2545.9644
 20
2079.8346
 11
2545.9644
 21
1980.0435
  0
LINE
  8
_0-3_STR
  6
CONTINUOUS
 62
    7
 10
2623.5112
 20
2079.8346
 11
2623.5112
 21
1980.0435
  0
LINE
  8
_0-1_BMK
  6
CENTER2
 62
    1
 10
2419.1865
 20
1645.6061
 11
2419.1865
 21
1991.4854
  0
TEXT
  8
_0-3_STR
 62
    7
 10
2389.4868
 20
1472.1165
 40
75
 41
1
 50
0
  1
157
  0
TEXT
  8
_0-3_STR
 62
    7
 10
2807.6362
 20
1472.1165
 40
90
 41
1
 50
0
  1
800
  0
TEXT
  8
_0-3_STR
 62
    7
 10
3158.2059
 20
1362.2995
 40
90
 41
1
 50
0
  1
2257
  0
TEXT
  8
_0-3_STR
 62
    7
 10
3787.5418
 20
1467.8928
 40
90
 41
1
 50
0
  1
1300
  0
TEXT
  8
_0-3_STR
 62
    4
 10
4383.088
 20
1784.6726
 40
60
 41
1
 50
90
  1
230
  0
LINE
  8
_0-0_0
  6
CONTINUOUS
 62
    4
 10
3686.1723
 20
2984.2123
 11
3686.1723
 21
1729.2123
  0
LINE
  8
_0-0_0
  6
CONTINUOUS
 62
    4
 10
3686.1723
 20
2984.2123
 11
3693.9369
 21
2955.2345
  0
LINE
  8
_0-0_0
  6
CONTINUOUS
 62
    4
 10
3686.1723
 20
2984.2123
 11
3678.4077
 21
2955.2345
  0
LINE
  8
_0-0_0
  6
CONTINUOUS
 62
    4
 10
3686.1723
 20
1729.2123
 11
3693.9369
 21
1758.1901
  0
LINE
  8
_0-0_0
  6
CONTINUOUS
 62
    4
 10
3686.1723
 20
1729.2123
 11
3678.4077
 21
1758.1901
  0
LINE
  8
_0-0_0
  6
CONTINUOUS
 62
    4
 10
3686.1723
 20
1729.2123
 11
3732.6333
 21
1729.2123
  0
TEXT
  8
_0-0_0
 62
    7
 10
3671.1723
 20
2270.4623
 40
75
 41
1
 50
90
  1
1255
  0
LINE
  8
_0-0_0
  6
CONTINUOUS
 62
    7
 10
5248.9529
 20
2979.9886
 11
5248.9529
 21
1954.9886
  0
LINE
  8
_0-1_BMK
  6
CENTER2
 62
    1
 10
6205.9387
 20
2089.7788
 11
6205.9387
 21
1838.6511
  0
LINE
  8
_0-1_BMK
  6
CENTER2
 62
    1
 10
5380.1617
 20
2089.7788
 11
5380.1617
 21
1838.6511
  0
LINE
  8
_0-1_BMK
  6
CENTER2
 62
    1
 10
6016.6988
 20
2092.5849
 11
6016.6988
 21
1841.4572
  0
LINE
  8
_0-1_BMK
  6
CENTER2
 62
    1
 10
5569.4016
 20
2092.5849
 11
5569.4016
 21
1841.4572
  0
LINE
  8
_0-3_STR
  6
CONTINUOUS
 62
    7
 10
6058.6166
 20
2051.1621
 11
6058.6166
 21
1984.6004
  0
LINE
  8
_0-3_STR
  6
CONTINUOUS
 62
    7
 10
6051.2277
 20
2092.5849
 11
5982.17
 21
2092.5849
  0
LINE
  8
_0-3_STR
  6
CONTINUOUS
 62
    7
 10
6051.2277
 20
1984.6004
 11
6051.2277
 21
2092.5849
  0
LINE
  8
_0-3_STR
  6
CONTINUOUS
 62
    7
 10
6149.9985
 20
2051.1621
 11
6058.6166
 21
2051.1621
  0
LINE
  8
_0-3_STR
  6
CONTINUOUS
 62
    7
 10
6149.9985
 20
1984.6004
 11
6149.9985
 21
2051.1621
  0
LINE
  8
_0-3_STR
  6
CONTINUOUS
 62
    7
 10
6168.8271
 20
1984.6004
 11
6168.8271
 21
2089.7788
  0
LINE
  8
_0-3_STR
  6
CONTINUOUS
 62
    7
 10
6243.0502
 20
2089.7788
 11
6168.8271
 21
2089.7788
  0
LINE
  8
_0-3_STR
  6
CONTINUOUS
 62
    7
 10
6243.0502
 20
1984.031
 11
6243.0502
 21
2089.7788
  0
LINE
  8
_0-3_STR
  6
CONTINUOUS
 62
    7
 10
5527.4838
 20
2051.1621
 11
5527.4838
 21
1984.6004
  0
LINE
  8
_0-3_STR
  6
CONTINUOUS
 62
    7
 10
5603.9305
 20
2092.5849
 11
5603.9305
 21
1984.6004
  0
LINE
  8
_0-3_STR
  6
CONTINUOUS
 62
    7
 10
5534.8727
 20
2092.5849
 11
5603.9305
 21
2092.5849
  0
LINE
  8
_0-3_STR
  6
CONTINUOUS
 62
    7
 10
5534.8727
 20
1984.6004
 11
5534.8727
 21
2092.5849
  0
LINE
  8
_0-3_STR
  6
CONTINUOUS
 62
    7
 10
5436.1019
 20
2051.1621
 11
5527.4838
 21
2051.1621
  0
LINE
  8
_0-3_STR
  6
CONTINUOUS
 62
    7
 10
5436.1019
 20
1984.6004
 11
5436.1019
 21
2051.1621
  0
LINE
  8
_0-3_STR
  6
CONTINUOUS
 62
    7
 10
5417.2733
 20
1984.6004
 11
5417.2733
 21
2089.7788
  0
LINE
  8
_0-3_STR
  6
CONTINUOUS
 62
    7
 10
5343.0502
 20
2089.7788
 11
5417.2733
 21
2089.7788
  0
LINE
  8
_0-3_STR
  6
CONTINUOUS
 62
    7
 10
5343.0502
 20
1984.031
 11
5343.0502
 21
2089.7788
  0
LINE
  8
_0-3_STR
  6
CONTINUOUS
 62
    7
 10
5974.4874
 20
1896.2006
 11
5845.4078
 21
1896.2006
  0
LINE
  8
_0-3_STR
  6
CONTINUOUS
 62
    7
 10
5974.4874
 20
1944.1252
 11
5974.4874
 21
1896.2006
  0
LINE
  8
_0-3_STR
  6
CONTINUOUS
 62
    7
 10
5611.613
 20
1896.2006
 11
5740.6926
 21
1896.2006
  0
LINE
  8
_0-3_STR
  6
CONTINUOUS
 62
    7
 10
5611.613
 20
1944.1252
 11
5611.613
 21
1896.2006
  0
LINE
  8
_0-3_STR
  6
CONTINUOUS
 62
    7
 10
5858.6462
 20
1856.6846
 11
5727.4542
 21
1856.6846
  0
LINE
  8
_0-3_STR
  6
CONTINUOUS
 62
    7
 10
5982.276
 20
1799.5641
 11
5825.3006
 21
1799.5641
  0
LINE
  8
_0-3_STR
  6
CONTINUOUS
 62
    7
 10
5982.276
 20
1835.3811
 11
5855.0905
 21
1835.3811
  0
LINE
  8
_0-3_STR
  6
CONTINUOUS
 62
    7
 10
5982.276
 20
1763.7471
 11
5982.276
 21
1835.3811
  0
LINE
  8
_0-3_STR
  6
CONTINUOUS
 62
    7
 10
5603.8244
 20
1799.5641
 11
5760.7998
 21
1799.5641
  0
LINE
  8
_0-3_STR
  6
CONTINUOUS
 62
    7
 10
5603.8244
 20
1835.3811
 11
5731.0099
 21
1835.3811
  0
LINE
  8
_0-3_STR
  6
CONTINUOUS
 62
    7
 10
5603.8244
 20
1763.7471
 11
5603.8244
 21
1835.3811
  0
CIRCLE
  8
_0-3_STR
  6
CONTINUOUS
 62
    7
 10
5793.0502
 20
1856.6846
 40
65.596026
  0
LINE
  8
_0-1_BMK
  6
CENTER2
 62
    1
 10
5793.0502
 20
1984.6004
 11
5793.0502
 21
1728.7687
  0
LINE
  8
_0-3_STR
  6
CONTINUOUS
 62
    7
 10
6293.0502
 20
1984.6004
 11
6293.0502
 21
1839.2964
  0
LINE
  8
_0-3_STR
  6
CONTINUOUS
 62
    7
 10
5293.0502
 20
1984.6004
 11
5293.0502
 21
1839.2964
  0
LINE
  8
_0-3_STR
  6
CONTINUOUS
 62
    7
 10
6149.9985
 20
1883.8846
 11
6149.9985
 21
1763.7471
  0
LINE
  8
_0-3_STR
  6
CONTINUOUS
 62
    7
 10
6104.2731
 20
1883.8846
 11
6104.2731
 21
1763.7471
  0
LINE
  8
_0-3_STR
  6
CONTINUOUS
 62
    7
 10
5436.1019
 20
1883.8846
 11
5436.1019
 21
1763.7471
  0
LINE
  8
_0-3_STR
  6
CONTINUOUS
 62
    7
 10
5481.8273
 20
1883.8846
 11
5481.8273
 21
1763.7471
  0
LINE
  8
_0-3_STR
  6
CONTINUOUS
 62
    7
 10
6243.0502
 20
1763.7471
 11
6243.0502
 21
1728.7687
  0
LINE
  8
_0-3_STR
  6
CONTINUOUS
 62
    7
 10
5343.0502
 20
1763.7471
 11
5343.0502
 21
1728.7687
  0
LINE
  8
_0-3_STR
  6
CONTINUOUS
 62
    7
 10
5343.0502
 20
1763.7471
 11
6243.0502
 21
1763.7471
  0
LINE
  8
_0-3_STR
  6
CONTINUOUS
 62
    7
 10
5417.2733
 20
1839.2964
 11
5417.2733
 21
1883.8846
  0
LINE
  8
_0-3_STR
  6
CONTINUOUS
 62
    7
 10
5293.0502
 20
1839.2964
 11
5417.2733
 21
1839.2964
  0
LINE
  8
_0-3_STR
  6
CONTINUOUS
 62
    7
 10
5343.3296
 20
1883.8846
 11
5343.3296
 21
1943.7267
  0
LINE
  8
_0-3_STR
  6
CONTINUOUS
 62
    7
 10
5481.8273
 20
1883.8846
 11
5343.3296
 21
1883.8846
  0
LINE
  8
_0-3_STR
  6
CONTINUOUS
 62
    7
 10
5481.8273
 20
1944.1252
 11
5481.8273
 21
1883.8846
  0
LINE
  8
_0-3_STR
  6
CONTINUOUS
 62
    7
 10
6242.7708
 20
1883.8846
 11
6242.7708
 21
1943.7267
  0
LINE
  8
_0-3_STR
  6
CONTINUOUS
 62
    7
 10
6104.2731
 20
1883.8846
 11
6242.7708
 21
1883.8846
  0
LINE
  8
_0-3_STR
  6
CONTINUOUS
 62
    7
 10
6104.2731
 20
1944.1252
 11
6104.2731
 21
1883.8846
  0
LINE
  8
_0-3_STR
  6
CONTINUOUS
 62
    7
 10
6168.8271
 20
1839.2964
 11
6168.8271
 21
1883.8846
  0
LINE
  8
_0-3_STR
  6
CONTINUOUS
 62
    7
 10
6293.0502
 20
1839.2964
 11
6168.8271
 21
1839.2964
  0
LINE
  8
_0-3_STR
  6
CONTINUOUS
 62
    7
 10
5293.0502
 20
1944.1252
 11
6293.0502
 21
1944.1252
  0
LINE
  8
_0-3_STR
  6
CONTINUOUS
 62
    7
 10
5343.0502
 20
1503.2684
 11
5363.0502
 21
1503.2684
  0
LINE
  8
_0-3_STR
  6
CONTINUOUS
 62
    7
 10
5343.0502
 20
1503.2684
 11
5363.0502
 21
1508.6274
  0
LINE
  8
_0-3_STR
  6
CONTINUOUS
 62
    7
 10
5363.0502
 20
1497.9094
 11
5343.0502
 21
1503.2684
  0
LINE
  8
_0-3_STR
  6
CONTINUOUS
 62
    7
 10
6243.0502
 20
1503.2684
 11
6223.0502
 21
1503.2684
  0
LINE
  8
_0-3_STR
  6
CONTINUOUS
 62
    7
 10
6243.0502
 20
1503.2684
 11
6223.0502
 21
1497.9094
  0
LINE
  8
_0-3_STR
  6
CONTINUOUS
 62
    7
 10
6223.0502
 20
1508.6274
 11
6243.0502
 21
1503.2684
  0
LINE
  8
_0-3_STR
  6
CONTINUOUS
 62
    7
 10
5293.0502
 20
1364.1954
 11
5313.0502
 21
1364.1954
  0
LINE
  8
_0-3_STR
  6
CONTINUOUS
 62
    7
 10
5293.0502
 20
1364.1954
 11
5313.0502
 21
1369.5543
  0
LINE
  8
_0-3_STR
  6
CONTINUOUS
 62
    7
 10
5313.0502
 20
1358.8364
 11
5293.0502
 21
1364.1954
  0
LINE
  8
_0-3_STR
  6
CONTINUOUS
 62
    7
 10
6293.0502
 20
1364.1954
 11
6273.0502
 21
1364.1954
  0
LINE
  8
_0-3_STR
  6
CONTINUOUS
 62
    7
 10
6293.0502
 20
1364.1954
 11
6273.0502
 21
1358.8364
  0
LINE
  8
_0-3_STR
  6
CONTINUOUS
 62
    7
 10
6273.0502
 20
1369.5543
 11
6293.0502
 21
1364.1954
  0
LINE
  8
_0-3_STR
  6
CONTINUOUS
 62
    7
 10
5313.0502
 20
1364.1954
 11
6273.0502
 21
1364.1954
  0
LINE
  8
_0-3_STR
  6
CONTINUOUS
 62
    7
 10
6293.0502
 20
1683.8478
 11
6293.0502
 21
1362.9454
  0
LINE
  8
_0-3_STR
  6
CONTINUOUS
 62
    7
 10
5293.0502
 20
1683.8478
 11
5293.0502
 21
1362.9454
  0
LINE
  8
_0-3_STR
  6
CONTINUOUS
 62
    7
 10
5363.0502
 20
1503.2684
 11
6223.0502
 21
1503.2684
  0
LINE
  8
_0-3_STR
  6
CONTINUOUS
 62
    7
 10
6243.0502
 20
1684.4728
 11
6243.0502
 21
1502.0184
  0
LINE
  8
_0-3_STR
  6
CONTINUOUS
 62
    7
 10
5343.0502
 20
1684.4728
 11
5343.0502
 21
1502.0184
  0
LINE
  8
_0-0_0
  6
CONTINUOUS
 62
    7
 10
5603.7463
 20
2468.9171
 11
5603.7463
 21
1983.188
  0
TEXT
  8
_0-3_STR
 62
    7
 10
5760.0244
 20
1362.2995
 40
75
 41
1
 50
0
  1
1000
  0
TEXT
  8
_0-3_STR
 62
    7
 10
5743.1294
 20
1501.6826
 40
75
 41
1
 50
0
  1
900
  0
LINE
  8
_0-0_0
  6
CONTINUOUS
 62
    4
 10
6597.0818
 20
3459.1497
 11
6597.0818
 21
1729.1497
  0
LINE
  8
_0-0_0
  6
CONTINUOUS
 62
    4
 10
6597.0818
 20
3459.1497
 11
6604.8463
 21
3430.1719
  0
LINE
  8
_0-0_0
  6
CONTINUOUS
 62
    4
 10
6597.0818
 20
3459.1497
 11
6589.3172
 21
3430.1719
  0
LINE
  8
_0-0_0
  6
CONTINUOUS
 62
    4
 10
6597.0818
 20
1729.1497
 11
6604.8463
 21
1758.1275
  0
LINE
  8
_0-0_0
  6
CONTINUOUS
 62
    4
 10
6597.0818
 20
1729.1497
 11
6589.3172
 21
1758.1275
  0
LINE
  8
_0-0_0
  6
CONTINUOUS
 62
    4
 10
6597.0818
 20
3459.1497
 11
6625.076
 21
3459.1497
  0
LINE
  8
_0-0_0
  6
CONTINUOUS
 62
    4
 10
6597.0818
 20
1729.1497
 11
6625.076
 21
1729.1497
  0
TEXT
  8
_0-0_0
 62
    7
 10
6582.0818
 20
2507.8997
 40
75
 41
1
 50
90
  1
1730
  0
LINE
  8
_0-3_STR
  6
CONTINUOUS
 62
    7
 10
5343.0502
 20
1728.7687
 11
6663.568
 21
1728.7687
  0
LINE
  8
_0-0_0
  6
CONTINUOUS
 62
    7
 10
5706.4401
 20
1909.0094
 11
5705.8073
 21
1908.3911
  0
LINE
  8
_0-0_0
  6
CONTINUOUS
 62
    7
 10
5634.7028
 20
1982.9914
 11
5980.5454
 21
2273.1878
  0
LINE
  8
_0-0_0
  6
CONTINUOUS
 62
    7
 10
5703.2204
 20
1988.4007
 11
5979.8728
 21
2220.5397
  0
LINE
  8
_0-0_0
  6
CONTINUOUS
 62
    7
 10
5769.9348
 20
1992.0069
 11
5979.3065
 21
2167.6906
  0
LINE
  8
_0-0_0
  6
CONTINUOUS
 62
    7
 10
5834.8462
 20
1986.5976
 11
5980.5122
 21
2108.826
  0
LINE
  8
_0-0_0
  6
CONTINUOUS
 62
    7
 10
5905.1668
 20
1988.4007
 11
5975.0507
 21
2047.0403
  0
LINE
  8
_0-0_0
  6
CONTINUOUS
 62
    7
 10
5602.6836
 20
2017.3593
 11
5978.572
 21
2332.7672
  0
LINE
  8
_0-0_0
  6
CONTINUOUS
 62
    7
 10
5602.6836
 20
2079.9902
 11
5980.129
 21
2396.7045
  0
LINE
  8
_0-0_0
  6
CONTINUOUS
 62
    7
 10
5602.6836
 20
2146.2
 11
5976.3992
 21
2459.7846
  0
LINE
  8
_0-0_0
  6
CONTINUOUS
 62
    7
 10
5604.473
 20
2212.4098
 11
6233.605
 21
2740.3142
  0
LINE
  8
_0-0_0
  6
CONTINUOUS
 62
    7
 10
5604.473
 20
2275.0407
 11
6234.8967
 21
2804.029
  0
LINE
  8
_0-0_0
  6
CONTINUOUS
 62
    7
 10
5606.2625
 20
2337.6716
 11
6211.5202
 21
2845.5432
  0
LINE
  8
_0-0_0
  6
CONTINUOUS
 62
    7
 10
5606.2625
 20
2396.7236
 11
5857.6475
 21
2607.6607
  0
LINE
  8
_0-0_0
  6
CONTINUOUS
 62
    7
 10
5608.0519
 20
2464.7229
 11
5774.3302
 21
2604.2469
  0
LINE
  8
_0-0_0
  6
CONTINUOUS
 62
    7
 10
5568.684
 20
2504.0909
 11
5701.0213
 21
2615.1351
  0
LINE
  8
_0-0_0
  6
CONTINUOUS
 62
    7
 10
5522.1581
 20
2539.8799
 11
5638.1645
 21
2637.2208
  0
LINE
  8
_0-0_0
  6
CONTINUOUS
 62
    7
 10
5481.0007
 20
2575.669
 11
5584.7075
 21
2662.6894
  0
LINE
  8
_0-0_0
  6
CONTINUOUS
 62
    7
 10
5441.6327
 20
2611.4581
 11
5540.9702
 21
2694.8122
  0
LINE
  8
_0-0_0
  6
CONTINUOUS
 62
    7
 10
5402.2647
 20
2649.0366
 11
5505.8026
 21
2735.9152
  0
LINE
  8
_0-0_0
  6
CONTINUOUS
 62
    7
 10
5359.3178
 20
2681.2468
 11
5470.0374
 21
2774.1516
  0
LINE
  8
_0-0_0
  6
CONTINUOUS
 62
    7
 10
5348.5811
 20
2745.6672
 11
5440.1573
 21
2822.5088
  0
LINE
  8
_0-3_STR
  6
CONTINUOUS
 62
    7
 10
2879.5161
 20
2012.8394
 11
2998.5707
 21
2012.8394
  0
LINE
  8
_0-3_STR
  6
CONTINUOUS
 62
    7
 10
2577.8306
 20
2605.8875
 11
2577.8306
 21
3366.5256
  0
LINE
  8
_0-0_0
  6
CONTINUOUS
 62
    7
 10
2719.8644
 20
2605.8875
 11
2577.8306
 21
2605.8875
  0
LINE
  8
_0-0_0
  6
CONTINUOUS
 62
    7
 10
2950.9217
 20
2012.4355
 11
2920.9661
 21
1982.48
  0
LINE
  8
_0-0_0
  6
CONTINUOUS
 62
    7
 10
2901.1842
 20
2012.4355
 11
2868.9679
 21
1980.2192
  0
LINE
  8
_0-0_0
  6
CONTINUOUS
 62
    7
 10
2849.1859
 20
2011.3051
 11
2819.2304
 21
1981.3496
  0
LINE
  8
_0-0_0
  6
CONTINUOUS
 62
    7
 10
2798.318
 20
2012.4355
 11
2765.5365
 21
1979.654
  0
LINE
  8
_0-0_0
  6
CONTINUOUS
 62
    7
 10
2758.7541
 20
2033.9131
 11
2723.1466
 21
1998.3055
  0
LINE
  8
_0-0_0
  6
CONTINUOUS
 62
    7
 10
2762.1453
 20
2088.1721
 11
2719.1902
 21
2045.217
  0
LINE
  8
_0-0_0
  6
CONTINUOUS
 62
    7
 10
2761.0149
 20
2142.4312
 11
2720.8858
 21
2102.3021
  0
LINE
  8
_0-0_0
  6
CONTINUOUS
 62
    7
 10
2759.8845
 20
2197.8207
 11
2722.5814
 21
2160.5176
  0
LINE
  8
_0-0_0
  6
CONTINUOUS
 62
    7
 10
2759.8845
 20
2247.5582
 11
2722.0162
 21
2209.6898
  0
LINE
  8
_0-0_0
  6
CONTINUOUS
 62
    7
 10
2762.1453
 20
2298.426
 11
2723.1466
 21
2259.4273
  0
LINE
  8
_0-0_0
  6
CONTINUOUS
 62
    7
 10
2761.0149
 20
2356.0763
 11
2719.7554
 21
2314.8168
  0
LINE
  8
_0-0_0
  6
CONTINUOUS
 62
    7
 10
2721.451
 20
2376.4235
 11
2763.8409
 21
2418.8134
  0
LINE
  8
_0-0_0
  6
CONTINUOUS
 62
    7
 10
2722.5814
 20
2439.7257
 11
2764.4061
 21
2481.5504
  0
LINE
  8
_0-0_0
  6
CONTINUOUS
 62
    7
 10
2721.451
 20
2501.8976
 11
2760.4497
 21
2540.8963
  0
LINE
  8
_0-0_0
  6
CONTINUOUS
 62
    7
 10
2721.451
 20
2566.3302
 11
2758.1889
 21
2603.0681
  0
LINE
  8
_0-0_0
  6
CONTINUOUS
 62
    7
 10
2722.5814
 20
2634.1541
 11
2759.3193
 21
2670.892
  0
LINE
  8
_0-0_0
  6
CONTINUOUS
 62
    7
 10
2721.451
 20
2699.7171
 11
2758.7541
 21
2737.0202
  0
LINE
  8
_0-0_0
  6
CONTINUOUS
 62
    7
 10
2723.7118
 20
2767.5409
 11
2759.8845
 21
2803.7137
  0
LINE
  8
_0-3_STR
  6
CONTINUOUS
 62
    7
 10
2879.5161
 20
2530.6354
 11
2805.1938
 21
2530.6354
  0
LINE
  8
_0-3_STR
  6
CONTINUOUS
 62
    7
 10
2879.5161
 20
2530.6354
 11
2953.8384
 21
2530.6354
  0
LINE
  8
_0-3_STR
  6
CONTINUOUS
 62
    7
 10
2760.4615
 20
2510.382
 11
2805.1938
 21
2510.382
  0
LINE
  8
_0-3_STR
  6
CONTINUOUS
 62
    7
 10
2998.5707
 20
2508.8311
 11
2953.8384
 21
2508.8311
  0
LINE
  8
_0-3_STR
  6
CONTINUOUS
 62
    7
 10
2805.1938
 20
3460.0131
 11
2805.1938
 21
2512.0294
  0
LINE
  8
_0-3_STR
  6
CONTINUOUS
 62
    7
 10
2953.8384
 20
3460.0131
 11
2953.8384
 21
2510.4111
  0
LINE
  8
_0-3_STR
  6
CONTINUOUS
 62
    7
 10
2879.5161
 20
3438.2088
 11
2879.5161
 21
2531.4492
  0
LINE
  8
_0-3_STR
  6
CONTINUOUS
 62
    7
 10
2998.1623
 20
2836.9169
 11
3005.6047
 21
2844.3592
  0
LINE
  8
_0-0_0
  6
CONTINUOUS
 62
    7
 10
3035.561
 20
2031.7253
 11
2999.9534
 21
1996.1178
  0
LINE
  8
_0-0_0
  6
CONTINUOUS
 62
    7
 10
3038.9522
 20
2085.9844
 11
2995.9971
 21
2043.0293
  0
LINE
  8
_0-0_0
  6
CONTINUOUS
 62
    7
 10
3037.8218
 20
2140.2434
 11
2997.6927
 21
2100.1143
  0
LINE
  8
_0-0_0
  6
CONTINUOUS
 62
    7
 10
3036.6914
 20
2195.6329
 11
2999.3882
 21
2158.3298
  0
LINE
  8
_0-0_0
  6
CONTINUOUS
 62
    7
 10
3036.6914
 20
2245.3704
 11
2998.823
 21
2207.5021
  0
LINE
  8
_0-0_0
  6
CONTINUOUS
 62
    7
 10
3038.9522
 20
2296.2383
 11
2999.9534
 21
2257.2396
  0
LINE
  8
_0-0_0
  6
CONTINUOUS
 62
    7
 10
3037.8218
 20
2353.8886
 11
2996.5623
 21
2312.629
  0
LINE
  8
_0-0_0
  6
CONTINUOUS
 62
    7
 10
2998.2579
 20
2374.2357
 11
3040.6478
 21
2416.6256
  0
LINE
  8
_0-0_0
  6
CONTINUOUS
 62
    7
 10
2999.3882
 20
2437.538
 11
3041.213
 21
2479.3627
  0
LINE
  8
_0-0_0
  6
CONTINUOUS
 62
    7
 10
2998.2579
 20
2499.7098
 11
3037.2566
 21
2538.7085
  0
LINE
  8
_0-0_0
  6
CONTINUOUS
 62
    7
 10
2998.2579
 20
2564.1425
 11
3034.9958
 21
2600.8804
  0
LINE
  8
_0-0_0
  6
CONTINUOUS
 62
    7
 10
2999.3882
 20
2631.9663
 11
3036.1262
 21
2668.7042
  0
LINE
  8
_0-0_0
  6
CONTINUOUS
 62
    7
 10
2998.2579
 20
2697.5294
 11
3035.561
 21
2734.8325
  0
LINE
  8
_0-0_0
  6
CONTINUOUS
 62
    7
 10
3000.5186
 20
2765.3532
 11
3036.6914
 21
2801.5259
  0
LINE
  8
_0-3_STR
  6
CONTINUOUS
 62
    7
 10
2721.3555
 20
2846.5469
 11
2721.3555
 21
1978.9642
  0
LINE
  8
_0-3_STR
  6
CONTINUOUS
 62
    7
 10
2760.4615
 20
2846.5469
 11
2721.3555
 21
2846.5469
  0
ENDSEC
  0
EOF
