  0
SECTION
  2
HEADER
  9
$ACADVER
  1
AC1014
  9
$ACADMAINTVER
 70
     9
  9
$DWGCODEPAGE
  3
ANSI_932
  9
$INSBASE
 10
0.0
 20
0.0
 30
0.0
  9
$EXTMIN
 10
565.1230645054324
 20
182.1323612536398
 30
0.0
  9
$EXTMAX
 10
4117.184471616876
 20
8281.992649879768
 30
0.0
  9
$LIMMIN
 10
0.0
 20
0.0
  9
$LIMMAX
 10
5000.0
 20
8500.0
  9
$ORTHOMODE
 70
     0
  9
$REGENMODE
 70
     1
  9
$FILLMODE
 70
     1
  9
$QTEXTMODE
 70
     0
  9
$MIRRTEXT
 70
     0
  9
$DRAGMODE
 70
     2
  9
$LTSCALE
 40
1.0
  9
$OSMODE
 70
    47
  9
$ATTMODE
 70
     1
  9
$TEXTSIZE
 40
536.997578053626
  9
$TRACEWID
 40
1.0
  9
$TEXTSTYLE
  7
STANDARD
  9
$CLAYER
  8
STR
  9
$CELTYPE
  6
BYLAYER
  9
$CECOLOR
 62
   256
  9
$CELTSCALE
 40
1.0
  9
$DELOBJ
 70
     1
  9
$DISPSILH
 70
     0
  9
$DIMSCALE
 40
1.0
  9
$DIMASZ
 40
50.0
  9
$DIMEXO
 40
0.625
  9
$DIMDLI
 40
3.75
  9
$DIMRND
 40
0.0
  9
$DIMDLE
 40
0.0
  9
$DIMEXE
 40
1.25
  9
$DIMTP
 40
0.0
  9
$DIMTM
 40
0.0
  9
$DIMTXT
 40
60.0
  9
$DIMCEN
 40
2.5
  9
$DIMTSZ
 40
0.0
  9
$DIMTOL
 70
     0
  9
$DIMLIM
 70
     0
  9
$DIMTIH
 70
     0
  9
$DIMTOH
 70
     0
  9
$DIMSE1
 70
     0
  9
$DIMSE2
 70
     0
  9
$DIMTAD
 70
     1
  9
$DIMZIN
 70
     8
  9
$DIMBLK
  1
OPEN30
  9
$DIMASO
 70
     1
  9
$DIMSHO
 70
     1
  9
$DIMPOST
  1

  9
$DIMAPOST
  1

  9
$DIMALT
 70
     0
  9
$DIMALTD
 70
     3
  9
$DIMALTF
 40
0.03937007874016
  9
$DIMLFAC
 40
1.0
  9
$DIMTOFL
 70
     1
  9
$DIMTVP
 40
0.0
  9
$DIMTIX
 70
     0
  9
$DIMSOXD
 70
     0
  9
$DIMSAH
 70
     0
  9
$DIMBLK1
  1

  9
$DIMBLK2
  1

  9
$DIMSTYLE
  2
ISO-25-BRGK
  9
$DIMCLRD
 70
     0
  9
$DIMCLRE
 70
     0
  9
$DIMCLRT
 70
     0
  9
$DIMTFAC
 40
1.0
  9
$DIMGAP
 40
30.0
  9
$DIMJUST
 70
     0
  9
$DIMSD1
 70
     0
  9
$DIMSD2
 70
     0
  9
$DIMTOLJ
 70
     0
  9
$DIMTZIN
 70
     8
  9
$DIMALTZ
 70
     0
  9
$DIMALTTZ
 70
     0
  9
$DIMFIT
 70
     2
  9
$DIMUPT
 70
     0
  9
$DIMUNIT
 70
     2
  9
$DIMDEC
 70
     2
  9
$DIMTDEC
 70
     2
  9
$DIMALTU
 70
     2
  9
$DIMALTTD
 70
     3
  9
$DIMTXSTY
  7
STANDARD
  9
$DIMAUNIT
 70
     0
  9
$LUNITS
 70
     2
  9
$LUPREC
 70
     4
  9
$SKETCHINC
 40
1.0
  9
$FILLETRAD
 40
0.0
  9
$AUNITS
 70
     0
  9
$AUPREC
 70
     0
  9
$MENU
  1
.
  9
$ELEVATION
 40
0.0
  9
$PELEVATION
 40
0.0
  9
$THICKNESS
 40
0.0
  9
$LIMCHECK
 70
     0
  9
$BLIPMODE
 70
     0
  9
$CHAMFERA
 40
0.0
  9
$CHAMFERB
 40
0.0
  9
$CHAMFERC
 40
0.0
  9
$CHAMFERD
 40
0.0
  9
$SKPOLY
 70
     0
  9
$TDCREATE
 40
2453468.462395104
  9
$TDUPDATE
 40
2453476.591434815
  9
$TDINDWG
 40
0.6982859606
  9
$TDUSRTIMER
 40
0.6982857755
  9
$USRTIMER
 70
     1
  9
$ANGBASE
 50
0.0
  9
$ANGDIR
 70
     0
  9
$PDMODE
 70
     0
  9
$PDSIZE
 40
0.0
  9
$PLINEWID
 40
0.0
  9
$COORDS
 70
     1
  9
$SPLFRAME
 70
     0
  9
$SPLINETYPE
 70
     6
  9
$SPLINESEGS
 70
     8
  9
$ATTDIA
 70
     0
  9
$ATTREQ
 70
     1
  9
$HANDLING
 70
 22529
  9
$HANDSEED
  5
2277
  9
$SURFTAB1
 70
     6
  9
$SURFTAB2
 70
     6
  9
$SURFTYPE
 70
     6
  9
$SURFU
 70
     6
  9
$SURFV
 70
     6
  9
$UCSNAME
  2

  9
$UCSORG
 10
0.0
 20
0.0
 30
0.0
  9
$UCSXDIR
 10
1.0
 20
0.0
 30
0.0
  9
$UCSYDIR
 10
0.0
 20
1.0
 30
0.0
  9
$PUCSNAME
  2

  9
$PUCSORG
 10
0.0
 20
0.0
 30
0.0
  9
$PUCSXDIR
 10
1.0
 20
0.0
 30
0.0
  9
$PUCSYDIR
 10
0.0
 20
1.0
 30
0.0
  9
$USERI1
 70
     0
  9
$USERI2
 70
     0
  9
$USERI3
 70
     0
  9
$USERI4
 70
     0
  9
$USERI5
 70
     0
  9
$USERR1
 40
0.0
  9
$USERR2
 40
0.0
  9
$USERR3
 40
0.0
  9
$USERR4
 40
0.0
  9
$USERR5
 40
0.0
  9
$WORLDVIEW
 70
     1
  9
$SHADEDGE
 70
     3
  9
$SHADEDIF
 70
    70
  9
$TILEMODE
 70
     1
  9
$MAXACTVP
 70
    48
  9
$PINSBASE
 10
0.0
 20
0.0
 30
0.0
  9
$PLIMCHECK
 70
     0
  9
$PEXTMIN
 10
-1.578991493883279
 20
-6.780636724494456
 30
-0.0015258207003583
  9
$PEXTMAX
 10
208.4977910823417
 20
293.7117563566674
 30
0.0000000349246037
  9
$PLIMMIN
 10
-5.873749732971191
 20
-5.916075706481933
  9
$PLIMMAX
 10
204.0995779037475
 20
291.0522470474243
  9
$UNITMODE
 70
     0
  9
$VISRETAIN
 70
     1
  9
$PLINEGEN
 70
     0
  9
$PSLTSCALE
 70
     1
  9
$TREEDEPTH
 70
  3020
  9
$PICKSTYLE
 70
     1
  9
$CMLSTYLE
  2
STANDARD
  9
$CMLJUST
 70
     0
  9
$CMLSCALE
 40
20.0
  9
$PROXYGRAPHICS
 70
     1
  9
$MEASUREMENT
 70
     1
  0
ENDSEC
  0
SECTION
  2
CLASSES
  0
CLASS
  1
ACDBDICTIONARYWDFLT
  2
AcDbDictionaryWithDefault
  3
AutoCAD 2000
 90
        0
280
     0
281
     0
  0
CLASS
  1
ACDBPLACEHOLDER
  2
AcDbPlaceHolder
  3
AutoCAD 2000
 90
        0
280
     0
281
     0
  0
CLASS
  1
LAYOUT
  2
AcDbLayout
  3
AutoCAD 2000
 90
        0
280
     0
281
     0
  0
CLASS
  1
DICTIONARYVAR
  2
AcDbDictionaryVar
  3
AutoCAD 2000
 90
        0
280
     0
281
     0
  0
CLASS
  1
DIMASSOC
  2
AcDbDimAssoc
  3
"AcDbDimAssoc|Product Desc:     AcDim ARX App For Dimension|Company:          Autodesk, Inc.|WEB Address:      www.autodesk.com"
 90
        0
280
     0
281
     0
  0
CLASS
  1
SORTENTSTABLE
  2
AcDbSortentsTable
  3
AutoCAD 2000
 90
        0
280
     0
281
     0
  0
CLASS
  1
LONG_TRANSACTION
  2
AcDbLongTransaction
  3
AutoCAD 2000
 90
        0
280
     0
281
     0
  0
CLASS
  1
LWPOLYLINE
  2
AcDbPolyline
  3
AutoCAD 2000
 90
        0
280
     0
281
     1
  0
CLASS
  1
HATCH
  2
AcDbHatch
  3
AutoCAD 2000
 90
        0
280
     0
281
     1
  0
CLASS
  1
XRECORD
  2
AcDbXrecord
  3
AutoCAD 2000
 90
        0
280
     0
281
     0
  0
CLASS
  1
LONG_TRANSACTION
  2
AcDbLongTransaction
  3
AutoCAD 2000
 90
        0
280
     0
281
     0
  0
CLASS
  1
LWPOLYLINE
  2
AcDbPolyline
  3
AutoCAD 2000
 90
        0
280
     0
281
     1
  0
CLASS
  1
HATCH
  2
AcDbHatch
  3
AutoCAD 2000
 90
        0
280
     0
281
     1
  0
CLASS
  1
XRECORD
  2
AcDbXrecord
  3
AutoCAD 2000
 90
        0
280
     0
281
     0
  0
ENDSEC
  0
SECTION
  2
TABLES
  0
TABLE
  2
VPORT
  5
8
330
0
100
AcDbSymbolTable
 70
     2
  0
VPORT
  5
2253
330
8
100
AcDbSymbolTableRecord
100
AcDbViewportTableRecord
  2
*ACTIVE
 70
     0
 10
0.0
 20
0.0
 11
1.0
 21
1.0
 12
2499.99998423703
 22
4255.612096158418
 13
0.0
 23
0.0
 14
10.0
 24
10.0
 15
10.0
 25
10.0
 16
0.0
 26
0.0
 36
1.0
 17
0.0
 27
0.0
 37
0.0
 40
12675.98692685483
 41
1.580912863070539
 42
50.0
 43
0.0
 44
0.0
 50
0.0
 51
0.0
 71
     0
 72
  1000
 73
     1
 74
     3
 75
     0
 76
     0
 77
     0
 78
     0
  0
ENDTAB
  0
TABLE
  2
LTYPE
  5
5
330
0
100
AcDbSymbolTable
 70
     3
  0
LTYPE
  5
14
330
5
100
AcDbSymbolTableRecord
100
AcDbLinetypeTableRecord
  2
BYBLOCK
 70
     0
  3

 72
    65
 73
     0
 40
0.0
  0
LTYPE
  5
15
330
5
100
AcDbSymbolTableRecord
100
AcDbLinetypeTableRecord
  2
BYLAYER
 70
     0
  3

 72
    65
 73
     0
 40
0.0
  0
LTYPE
  5
16
330
5
100
AcDbSymbolTableRecord
100
AcDbLinetypeTableRecord
  2
CONTINUOUS
 70
     0
  3
Solid line
 72
    65
 73
     0
 40
0.0
  0
LTYPE
  5
8D
330
5
100
AcDbSymbolTableRecord
100
AcDbLinetypeTableRecord
  2
CENTER
 70
     0
  3
Center ____ _ ____ _ ____ _ ____ _ ____ _ ____
 72
    65
 73
     4
 40
50.8
 49
31.75
 74
     0
 49
-6.349999999999999
 74
     0
 49
6.349999999999999
 74
     0
 49
-6.349999999999999
 74
     0
  0
LTYPE
  5
1E09
330
5
100
AcDbSymbolTableRecord
100
AcDbLinetypeTableRecord
  2
HIDDEN
 70
     0
  3
Hidden __ __ __ __ __ __ __ __ __ __ __ __ __ _
 72
    65
 73
     2
 40
9.524999999999998
 49
6.349999999999999
 74
     0
 49
-3.174999999999999
 74
     0
  0
ENDTAB
  0
TABLE
  2
LAYER
  5
2
330
0
100
AcDbSymbolTable
 70
     4
  0
LAYER
  5
10
330
2
100
AcDbSymbolTableRecord
100
AcDbLayerTableRecord
  2
0
 70
     0
 62
     7
  6
CONTINUOUS
  0
LAYER
  5
8A
330
2
100
AcDbSymbolTableRecord
100
AcDbLayerTableRecord
  2
BMK
 70
     0
 62
     1
  6
CENTER
  0
LAYER
  5
8E
330
2
100
AcDbSymbolTableRecord
100
AcDbLayerTableRecord
  2
DEFPOINTS
 70
     0
 62
     7
  6
CONTINUOUS
  0
LAYER
  5
8F
330
2
100
AcDbSymbolTableRecord
100
AcDbLayerTableRecord
  2
STR
 70
     0
 62
     7
  6
CONTINUOUS
  0
ENDTAB
  0
TABLE
  2
STYLE
  5
3
330
0
100
AcDbSymbolTable
 70
     1
  0
STYLE
  5
11
330
3
100
AcDbSymbolTableRecord
100
AcDbTextStyleTableRecord
  2
STANDARD
 70
     0
 40
0.0
 41
1.0
 50
0.0
 71
     0
 42
536.997578053626
  3
txt.shx
  4
bigfont.shx
  0
ENDTAB
  0
TABLE
  2
VIEW
  5
6
330
0
100
AcDbSymbolTable
 70
     0
  0
ENDTAB
  0
TABLE
  2
UCS
  5
7
330
0
100
AcDbSymbolTable
 70
     0
  0
ENDTAB
  0
TABLE
  2
APPID
  5
9
330
0
100
AcDbSymbolTable
 70
     1
  0
APPID
  5
12
330
9
100
AcDbSymbolTableRecord
100
AcDbRegAppTableRecord
  2
ACAD
 70
     0
  0
ENDTAB
  0
TABLE
  2
DIMSTYLE
  5
A
330
0
100
AcDbSymbolTable
 70
     1
  0
DIMSTYLE
105
103
330
A
100
AcDbSymbolTableRecord
100
AcDbDimStyleTableRecord
  2
ISO-25-BRGK
 70
     0
  3

  4

  5
OPEN30
  6

  7

 40
1.0
 41
50.0
 42
0.625
 43
3.75
 44
1.25
 45
0.0
 46
0.0
 47
0.0
 48
0.0
140
60.0
141
2.5
142
0.0
143
0.03937007874016
144
1.0
145
0.0
146
1.0
147
30.0
 71
     0
 72
     0
 73
     0
 74
     0
 75
     0
 76
     0
 77
     1
 78
     8
170
     0
171
     3
172
     1
173
     0
174
     0
175
     0
176
     0
177
     0
178
     0
270
     2
271
     2
272
     2
273
     2
274
     3
340
11
275
     0
280
     0
281
     0
282
     0
283
     0
284
     8
285
     0
286
     0
287
     2
288
     0
  0
ENDTAB
  0
TABLE
  2
BLOCK_RECORD
  5
1
330
0
100
AcDbSymbolTable
 70
     8
  0
BLOCK_RECORD
  5
1F
102
{ACAD_XDICTIONARY
360
21BD
102
}
330
1
100
AcDbSymbolTableRecord
100
AcDbBlockTableRecord
  2
*MODEL_SPACE
  0
BLOCK_RECORD
  5
2150
102
{ACAD_XDICTIONARY
360
21BF
102
}
330
1
100
AcDbSymbolTableRecord
100
AcDbBlockTableRecord
  2
*PAPER_SPACE
  0
BLOCK_RECORD
  5
FA
330
1
100
AcDbSymbolTableRecord
100
AcDbBlockTableRecord
  2
_OPEN30
  0
BLOCK_RECORD
  5
100
330
1
100
AcDbSymbolTableRecord
100
AcDbBlockTableRecord
  2
_NONE
  0
BLOCK_RECORD
  5
1E0B
330
1
100
AcDbSymbolTableRecord
100
AcDbBlockTableRecord
  2
*D2
  0
BLOCK_RECORD
  5
1E23
330
1
100
AcDbSymbolTableRecord
100
AcDbBlockTableRecord
  2
*D3
  0
BLOCK_RECORD
  5
1E3B
330
1
100
AcDbSymbolTableRecord
100
AcDbBlockTableRecord
  2
*D4
  0
BLOCK_RECORD
  5
1E9B
330
1
100
AcDbSymbolTableRecord
100
AcDbBlockTableRecord
  2
*D5
  0
BLOCK_RECORD
  5
1EB4
330
1
100
AcDbSymbolTableRecord
100
AcDbBlockTableRecord
  2
*D6
  0
BLOCK_RECORD
  5
1F38
330
1
100
AcDbSymbolTableRecord
100
AcDbBlockTableRecord
  2
*D7
  0
ENDTAB
  0
ENDSEC
  0
SECTION
  2
BLOCKS
  0
BLOCK
  5
20
330
1F
100
AcDbEntity
  8
0
100
AcDbBlockBegin
  2
*MODEL_SPACE
 70
     0
 10
0.0
 20
0.0
 30
0.0
  3
*MODEL_SPACE
  1

  0
ENDBLK
  5
21
330
1F
100
AcDbEntity
  8
0
100
AcDbBlockEnd
  0
BLOCK
  5
2152
330
2150
100
AcDbEntity
 67
     1
  8
0
100
AcDbBlockBegin
  2
*PAPER_SPACE
 70
     0
 10
0.0
 20
0.0
 30
0.0
  3
*PAPER_SPACE
  1

  0
ENDBLK
  5
2153
330
2150
100
AcDbEntity
 67
     1
  8
0
100
AcDbBlockEnd
  0
BLOCK
  5
FB
330
FA
100
AcDbEntity
  8
0
100
AcDbBlockBegin
  2
_OPEN30
 70
     0
 10
0.0
 20
0.0
 30
0.0
  3
_OPEN30
  1

  0
LINE
  5
FC
330
FA
100
AcDbEntity
  8
0
  6
BYBLOCK
 62
     0
100
AcDbLine
 10
-1.0
 20
0.26794919
 30
0.0
 11
0.0
 21
0.0
 31
0.0
  0
LINE
  5
FD
330
FA
100
AcDbEntity
  8
0
  6
BYBLOCK
 62
     0
100
AcDbLine
 10
0.0
 20
0.0
 30
0.0
 11
-1.0
 21
-0.26794919
 31
0.0
  0
LINE
  5
FE
330
FA
100
AcDbEntity
  8
0
  6
BYBLOCK
 62
     0
100
AcDbLine
 10
0.0
 20
0.0
 30
0.0
 11
-1.0
 21
0.0
 31
0.0
  0
ENDBLK
  5
FF
330
FA
100
AcDbEntity
  8
0
100
AcDbBlockEnd
  0
BLOCK
  5
101
330
100
100
AcDbEntity
  8
0
100
AcDbBlockBegin
  2
_NONE
 70
     0
 10
0.0
 20
0.0
 30
0.0
  3
_NONE
  1

  0
ENDBLK
  5
102
330
100
100
AcDbEntity
  8
0
100
AcDbBlockEnd
  0
BLOCK
  5
1E15
330
1E0B
100
AcDbEntity
  8
0
100
AcDbBlockBegin
  2
*D2
 70
     1
 10
0.0
 20
0.0
 30
0.0
  3
*D2
  1

  0
LINE
  5
1FEE
330
1E0B
100
AcDbEntity
  8
STR
 62
     0
100
AcDbLine
 10
3395.799508291899
 20
6891.837509970881
 30
0.0
 11
4105.037012116875
 21
6891.837509970881
 31
0.0
  0
LINE
  5
1FEF
330
1E0B
100
AcDbEntity
  8
STR
 62
     0
100
AcDbLine
 10
3395.799508291899
 20
4891.837509970882
 30
0.0
 11
4105.037012116874
 21
4891.837509970882
 31
0.0
  0
LINE
  5
1FF0
330
1E0B
100
AcDbEntity
  8
STR
 62
     0
100
AcDbLine
 10
4103.787012116875
 20
6841.837509970881
 30
0.0
 11
4103.787012116874
 21
4941.837509970882
 31
0.0
  0
INSERT
  5
1FF1
330
1E0B
100
AcDbEntity
  8
STR
 62
     0
100
AcDbBlockReference
  2
_OPEN30
 10
4103.787012116875
 20
6891.837509970881
 30
0.0
 41
50.0
 42
50.0
 43
50.0
 50
90.0
  0
INSERT
  5
1FF2
330
1E0B
100
AcDbEntity
  8
STR
 62
     0
100
AcDbBlockReference
  2
_OPEN30
 10
4103.787012116874
 20
4891.837509970882
 30
0.0
 41
50.0
 42
50.0
 43
50.0
 50
270.0
  0
MTEXT
  5
1FF3
330
1E0B
100
AcDbEntity
  8
STR
 62
     0
100
AcDbMText
 10
4043.787012116874
 20
5891.837509970883
 30
0.0
 40
60.0
 41
0.0
 71
     5
 72
     1
  1
2000
 11
0.0000000000000001
 21
1.0
 31
0.0
1001
ACAD
1000
MTEXTBEGIN
1070
    73
1070
     1
1070
    44
1040
1.0
1070
    74
1070
     0
1000
MTEXTEND
  0
POINT
  5
1FF4
330
1E0B
100
AcDbEntity
  8
DEFPOINTS
 62
     0
100
AcDbPoint
 10
3395.1745082919
 20
6891.837509970881
 30
0.0
  0
POINT
  5
1FF5
330
1E0B
100
AcDbEntity
  8
DEFPOINTS
 62
     0
100
AcDbPoint
 10
3395.1745082919
 20
4891.837509970882
 30
0.0
  0
POINT
  5
1FF6
330
1E0B
100
AcDbEntity
  8
DEFPOINTS
 62
     0
100
AcDbPoint
 10
4103.787012116874
 20
4891.837509970882
 30
0.0
  0
ENDBLK
  5
1E16
330
1E0B
100
AcDbEntity
  8
0
100
AcDbBlockEnd
  0
BLOCK
  5
1E2D
330
1E23
100
AcDbEntity
  8
0
100
AcDbBlockBegin
  2
*D3
 70
     1
 10
0.0
 20
0.0
 30
0.0
  3
*D3
  1

  0
LINE
  5
1FE5
330
1E23
100
AcDbEntity
  8
STR
 62
     0
100
AcDbLine
 10
965.1745082919003
 20
4861.212509970882
 30
0.0
 11
965.1745082919003
 21
4226.586958812424
 31
0.0
  0
LINE
  5
1FE6
330
1E23
100
AcDbEntity
  8
STR
 62
     0
100
AcDbLine
 10
3365.1745082919
 20
4861.212509970882
 30
0.0
 11
3365.1745082919
 21
4226.586958812424
 31
0.0
  0
LINE
  5
1FE7
330
1E23
100
AcDbEntity
  8
STR
 62
     0
100
AcDbLine
 10
1015.1745082919
 20
4227.836958812424
 30
0.0
 11
3315.174508291899
 21
4227.836958812424
 31
0.0
  0
INSERT
  5
1FE8
330
1E23
100
AcDbEntity
  8
STR
 62
     0
100
AcDbBlockReference
  2
_OPEN30
 10
965.1745082919003
 20
4227.836958812424
 30
0.0
 41
50.0
 42
50.0
 43
50.0
 50
180.0
  0
INSERT
  5
1FE9
330
1E23
100
AcDbEntity
  8
STR
 62
     0
100
AcDbBlockReference
  2
_OPEN30
 10
3365.1745082919
 20
4227.836958812424
 30
0.0
 41
50.0
 42
50.0
 43
50.0
  0
MTEXT
  5
1FEA
330
1E23
100
AcDbEntity
  8
STR
 62
     0
100
AcDbMText
 10
2165.1745082919
 20
4287.836958812424
 30
0.0
 40
60.0
 41
0.0
 71
     5
 72
     1
  1
2400
1001
ACAD
1000
MTEXTBEGIN
1070
    73
1070
     1
1070
    44
1040
1.0
1070
    74
1070
     0
1000
MTEXTEND
  0
POINT
  5
1FEB
330
1E23
100
AcDbEntity
  8
DEFPOINTS
 62
     0
100
AcDbPoint
 10
965.1745082919003
 20
4861.837509970882
 30
0.0
  0
POINT
  5
1FEC
330
1E23
100
AcDbEntity
  8
DEFPOINTS
 62
     0
100
AcDbPoint
 10
3365.1745082919
 20
4861.837509970882
 30
0.0
  0
POINT
  5
1FED
330
1E23
100
AcDbEntity
  8
DEFPOINTS
 62
     0
100
AcDbPoint
 10
3365.1745082919
 20
4227.836958812424
 30
0.0
  0
ENDBLK
  5
1E2E
330
1E23
100
AcDbEntity
  8
0
100
AcDbBlockEnd
  0
BLOCK
  5
1E42
330
1E3B
100
AcDbEntity
  8
0
100
AcDbBlockBegin
  2
*D4
 70
     1
 10
0.0
 20
0.0
 30
0.0
  3
*D4
  1

  0
LINE
  5
217F
330
1E3B
100
AcDbEntity
  8
STR
 62
     0
100
AcDbLine
 10
2723.844264895365
 20
7226.500154982343
 30
0.0
 11
1606.401864115497
 21
4550.435417174361
 31
0.0
  0
INSERT
  5
2180
330
1E3B
100
AcDbEntity
  8
STR
 62
     0
100
AcDbBlockReference
  2
_OPEN30
 10
2743.110513184673
 20
7272.63920218593
 30
0.0
 41
50.0
 42
50.0
 43
50.0
 50
67.33608398494256
  0
INSERT
  5
2181
330
1E3B
100
AcDbEntity
  8
STR
 62
     0
100
AcDbBlockReference
  2
_OPEN30
 10
1587.135615826188
 20
4504.296369970776
 30
0.0
 41
50.0
 42
50.0
 43
50.0
 50
247.3360839849426
  0
MTEXT
  5
2182
330
1E3B
100
AcDbEntity
  8
STR
 62
     0
100
AcDbMText
 10
1666.081814865893
 20
4849.07041753264
 30
0.0
 40
60.0
 41
0.0
 71
     5
 72
     1
  1
3000φ
 11
0.3853249657861621
 21
0.9227809440717191
 31
0.0
1001
ACAD
1000
MTEXTBEGIN
1070
    73
1070
     1
1070
    44
1040
1.0
1070
    74
1070
     0
1000
MTEXTEND
  0
POINT
  5
2183
330
1E3B
100
AcDbEntity
  8
DEFPOINTS
 62
     0
100
AcDbPoint
 10
1587.135615826188
 20
4504.296369970776
 30
0.0
  0
POINT
  5
2184
330
1E3B
100
AcDbEntity
  8
DEFPOINTS
 62
     0
100
AcDbPoint
 10
2743.110513184673
 20
7272.63920218593
 30
0.0
  0
ENDBLK
  5
1E43
330
1E3B
100
AcDbEntity
  8
0
100
AcDbBlockEnd
  0
BLOCK
  5
1EA5
330
1E9B
100
AcDbEntity
  8
0
100
AcDbBlockBegin
  2
*D5
 70
     1
 10
0.0
 20
0.0
 30
0.0
  3
*D5
  1

  0
LINE
  5
1FD6
330
1E9B
100
AcDbEntity
  8
STR
 62
     0
100
AcDbLine
 10
2991.152854830838
 20
3208.700149975203
 30
0.0
 11
3787.123596526749
 21
3208.700149975202
 31
0.0
  0
LINE
  5
1FD7
330
1E9B
100
AcDbEntity
  8
STR
 62
     0
100
AcDbLine
 10
3417.803389198207
 20
708.7001499752022
 30
0.0
 11
3787.123596526748
 21
708.7001499752022
 31
0.0
  0
LINE
  5
1FD8
330
1E9B
100
AcDbEntity
  8
STR
 62
     0
100
AcDbLine
 10
3785.873596526749
 20
3158.700149975202
 30
0.0
 11
3785.873596526748
 21
758.7001499752022
 31
0.0
  0
INSERT
  5
1FD9
330
1E9B
100
AcDbEntity
  8
STR
 62
     0
100
AcDbBlockReference
  2
_OPEN30
 10
3785.873596526749
 20
3208.700149975202
 30
0.0
 41
50.0
 42
50.0
 43
50.0
 50
90.0
  0
INSERT
  5
1FDA
330
1E9B
100
AcDbEntity
  8
STR
 62
     0
100
AcDbBlockReference
  2
_OPEN30
 10
3785.873596526748
 20
708.7001499752022
 30
0.0
 41
50.0
 42
50.0
 43
50.0
 50
270.0
  0
MTEXT
  5
1FDB
330
1E9B
100
AcDbEntity
  8
STR
 62
     0
100
AcDbMText
 10
3725.873596526747
 20
1958.700149975203
 30
0.0
 40
60.0
 41
0.0
 71
     5
 72
     1
  1
2500
 11
0.0000000000000001
 21
1.0
 31
0.0
1001
ACAD
1000
MTEXTBEGIN
1070
    73
1070
     1
1070
    44
1040
1.0
1070
    74
1070
     0
1000
MTEXTEND
  0
POINT
  5
1FDC
330
1E9B
100
AcDbEntity
  8
DEFPOINTS
 62
     0
100
AcDbPoint
 10
2990.527854830838
 20
3208.700149975203
 30
0.0
  0
POINT
  5
1FDD
330
1E9B
100
AcDbEntity
  8
DEFPOINTS
 62
     0
100
AcDbPoint
 10
3417.178389198208
 20
708.7001499752022
 30
0.0
  0
POINT
  5
1FDE
330
1E9B
100
AcDbEntity
  8
DEFPOINTS
 62
     0
100
AcDbPoint
 10
3785.873596526748
 20
708.7001499752022
 30
0.0
  0
ENDBLK
  5
1EA6
330
1E9B
100
AcDbEntity
  8
0
100
AcDbBlockEnd
  0
BLOCK
  5
1EBE
330
1EB4
100
AcDbEntity
  8
0
100
AcDbBlockBegin
  2
*D6
 70
     1
 10
0.0
 20
0.0
 30
0.0
  3
*D6
  1

  0
LINE
  5
2164
330
1EB4
100
AcDbEntity
  8
STR
 62
     0
100
AcDbLine
 10
3418.428389198207
 20
708.7001499752022
 30
0.0
 11
3999.832390543225
 21
708.7001499752021
 31
0.0
  0
LINE
  5
2165
330
1EB4
100
AcDbEntity
  8
STR
 62
     0
100
AcDbLine
 10
1787.803389198207
 20
3708.700149975202
 30
0.0
 11
3999.832390543226
 21
3708.700149975202
 31
0.0
  0
LINE
  5
2166
330
1EB4
100
AcDbEntity
  8
STR
 62
     0
100
AcDbLine
 10
3998.582390543225
 20
758.7001499752021
 30
0.0
 11
3998.582390543226
 21
3658.700149975202
 31
0.0
  0
INSERT
  5
2167
330
1EB4
100
AcDbEntity
  8
STR
 62
     0
100
AcDbBlockReference
  2
_OPEN30
 10
3998.582390543225
 20
708.7001499752021
 30
0.0
 41
50.0
 42
50.0
 43
50.0
 50
270.0
  0
INSERT
  5
2168
330
1EB4
100
AcDbEntity
  8
STR
 62
     0
100
AcDbBlockReference
  2
_OPEN30
 10
3998.582390543226
 20
3708.700149975202
 30
0.0
 41
50.0
 42
50.0
 43
50.0
 50
90.0
  0
MTEXT
  5
2169
330
1EB4
100
AcDbEntity
  8
STR
 62
     0
100
AcDbMText
 10
3938.582390543225
 20
2208.700149975202
 30
0.0
 40
60.0
 41
0.0
 71
     5
 72
     1
  1
MAX3000
 11
0.0000000000000001
 21
1.0
 31
0.0
1001
ACAD
1000
MTEXTBEGIN
1070
    73
1070
     1
1070
    44
1040
1.0
1070
    74
1070
     0
1000
MTEXTEND
  0
POINT
  5
216A
330
1EB4
100
AcDbEntity
  8
DEFPOINTS
 62
     0
100
AcDbPoint
 10
3417.803389198207
 20
708.7001499752022
 30
0.0
  0
POINT
  5
216B
330
1EB4
100
AcDbEntity
  8
DEFPOINTS
 62
     0
100
AcDbPoint
 10
1787.178389198207
 20
3708.700149975202
 30
0.0
  0
POINT
  5
216C
330
1EB4
100
AcDbEntity
  8
DEFPOINTS
 62
     0
100
AcDbPoint
 10
3998.582390543226
 20
3708.700149975202
 30
0.0
  0
ENDBLK
  5
1EBF
330
1EB4
100
AcDbEntity
  8
0
100
AcDbBlockEnd
  0
BLOCK
  5
1F42
330
1F38
100
AcDbEntity
  8
0
100
AcDbBlockBegin
  2
*D7
 70
     1
 10
0.0
 20
0.0
 30
0.0
  3
*D7
  1

  0
LINE
  5
1FC4
330
1F38
100
AcDbEntity
  8
STR
 62
     0
100
AcDbLine
 10
1105.527854830838
 20
1502.825149975202
 30
0.0
 11
1105.527854830838
 21
1503.450149975203
 31
0.0
  0
LINE
  5
1FC5
330
1F38
100
AcDbEntity
  8
STR
 62
     0
100
AcDbLine
 10
1905.527854830838
 20
1502.825149975202
 30
0.0
 11
1905.527854830838
 21
1503.450149975203
 31
0.0
  0
LINE
  5
1FC6
330
1F38
100
AcDbEntity
  8
STR
 62
     0
100
AcDbLine
 10
1155.527854830838
 20
1502.200149975203
 30
0.0
 11
1855.527854830838
 21
1502.200149975203
 31
0.0
  0
INSERT
  5
1FC7
330
1F38
100
AcDbEntity
  8
STR
 62
     0
100
AcDbBlockReference
  2
_OPEN30
 10
1105.527854830838
 20
1502.200149975203
 30
0.0
 41
50.0
 42
50.0
 43
50.0
 50
180.0
  0
INSERT
  5
1FC8
330
1F38
100
AcDbEntity
  8
STR
 62
     0
100
AcDbBlockReference
  2
_OPEN30
 10
1905.527854830838
 20
1502.200149975203
 30
0.0
 41
50.0
 42
50.0
 43
50.0
  0
MTEXT
  5
1FC9
330
1F38
100
AcDbEntity
  8
STR
 62
     0
100
AcDbMText
 10
1505.527854830838
 20
1562.200149975203
 30
0.0
 40
60.0
 41
0.0
 71
     5
 72
     1
  1
　
1001
ACAD
1000
MTEXTBEGIN
1070
    73
1070
     1
1070
    44
1040
1.0
1070
    74
1070
     0
1000
MTEXTEND
  0
POINT
  5
1FCA
330
1F38
100
AcDbEntity
  8
DEFPOINTS
 62
     0
100
AcDbPoint
 10
1105.527854830838
 20
1502.200149975202
 30
0.0
  0
POINT
  5
1FCB
330
1F38
100
AcDbEntity
  8
DEFPOINTS
 62
     0
100
AcDbPoint
 10
1905.527854830838
 20
1502.200149975202
 30
0.0
  0
POINT
  5
1FCC
330
1F38
100
AcDbEntity
  8
DEFPOINTS
 62
     0
100
AcDbPoint
 10
1905.527854830838
 20
1502.200149975203
 30
0.0
  0
ENDBLK
  5
1F43
330
1F38
100
AcDbEntity
  8
0
100
AcDbBlockEnd
  0
ENDSEC
  0
SECTION
  2
ENTITIES
  0
TEXT
  5
4DB
330
1F
100
AcDbEntity
  8
STR
100
AcDbText
 10
933.9967333155103
 20
7970.748234315853
 30
0.0
 40
60.0
  1
3-3d 機械，削進台の寸法図（d）
100
AcDbText
  0
TEXT
  5
1634
330
1F
100
AcDbEntity
  8
STR
100
AcDbText
 10
1209.478943747249
 20
7616.053367071533
 30
0.0
 40
60.0
  1
ベビーモールKYT-8090削進台据付図
100
AcDbText
  0
LINE
  5
1B8A
330
1F
100
AcDbEntity
  8
BMK
100
AcDbLine
 10
1505.527854830839
 20
3637.782406018208
 30
0.0
 11
1505.527854830838
 21
182.1323612536398
 31
0.0
  0
LINE
  5
1B9D
330
1F
100
AcDbEntity
  8
STR
100
AcDbLine
 10
1064.236895243023
 20
2665.700149975203
 30
0.0
 11
1946.818814418654
 21
2665.700149975203
 31
0.0
  0
LINE
  5
1BA6
330
1F
100
AcDbEntity
  8
STR
100
AcDbLine
 10
2024.696120746798
 20
3208.700149975203
 30
0.0
 11
2280.527854830839
 21
3208.700149975202
 31
0.0
  0
LINE
  5
1BA7
330
1F
100
AcDbEntity
  8
STR
100
AcDbLine
 10
2280.527854830839
 20
3208.700149975202
 30
0.0
 11
2280.527854830839
 21
2408.700149975201
 31
0.0
  0
LINE
  5
1BA8
330
1F
100
AcDbEntity
  8
STR
100
AcDbLine
 10
2280.527854830839
 20
2408.700149975201
 30
0.0
 11
2024.696120746798
 21
2408.700149975202
 31
0.0
  0
LINE
  5
1BAA
330
1F
100
AcDbEntity
  8
STR
100
AcDbLine
 10
2033.492739379912
 20
3263.389003865713
 30
0.0
 11
2271.731236197724
 21
3263.389003865713
 31
0.0
  0
LINE
  5
1BAB
330
1F
100
AcDbEntity
  8
STR
100
AcDbLine
 10
2271.731236197724
 20
3263.389003865713
 30
0.0
 11
2271.731236197724
 21
3208.700149975201
 31
0.0
  0
LINE
  5
1BAC
330
1F
100
AcDbEntity
  8
STR
100
AcDbLine
 10
2033.492739379912
 20
3263.389003865713
 30
0.0
 11
2033.492739379911
 21
3208.700149975202
 31
0.0
  0
LINE
  5
1BAD
330
1F
100
AcDbEntity
  8
STR
100
AcDbLine
 10
2092.252910006453
 20
3365.700149975202
 30
0.0
 11
2092.252910006453
 21
3263.389003865713
 31
0.0
  0
LINE
  5
1BAE
330
1F
100
AcDbEntity
  8
STR
100
AcDbLine
 10
2092.252910006453
 20
3365.700149975202
 30
0.0
 11
2139.608853401497
 21
3365.700149975202
 31
0.0
  0
LINE
  5
1BAF
330
1F
100
AcDbEntity
  8
STR
100
AcDbLine
 10
2139.608853401497
 20
3365.700149975202
 30
0.0
 11
2139.608853401497
 21
3263.389003865713
 31
0.0
  0
LINE
  5
1BB0
330
1F
100
AcDbEntity
  8
STR
100
AcDbLine
 10
2251.541108432293
 20
3365.700149975201
 30
0.0
 11
2251.541108432292
 21
3263.389003865713
 31
0.0
  0
LINE
  5
1BB1
330
1F
100
AcDbEntity
  8
STR
100
AcDbLine
 10
2204.185165037249
 20
3365.700149975202
 30
0.0
 11
2251.541108432293
 21
3365.700149975201
 31
0.0
  0
LINE
  5
1BB2
330
1F
100
AcDbEntity
  8
STR
100
AcDbLine
 10
2204.185165037249
 20
3365.700149975202
 30
0.0
 11
2204.185165037249
 21
3263.389003865713
 31
0.0
  0
LINE
  5
1BB3
330
1F
100
AcDbEntity
  8
BMK
100
AcDbLine
 10
2343.788180707812
 20
3314.544576920457
 30
0.0
 11
1997.908883712536
 21
3314.544576920457
 31
0.0
  0
LINE
  5
1BB4
330
1F
100
AcDbEntity
  8
BMK
100
AcDbLine
 10
1895.077979028309
 20
3148.993196379537
 30
0.0
 11
2162.438710576757
 21
3148.993196379537
 31
0.0
  0
LINE
  5
1BB9
330
1F
100
AcDbEntity
  8
STR
100
AcDbLine
 10
2240.052630200783
 20
3208.700149975202
 30
0.0
 11
2240.052630200783
 21
2408.700149975201
 31
0.0
  0
LINE
  5
1BBA
330
1F
100
AcDbEntity
  8
STR
100
AcDbLine
 10
2196.22405549392
 20
3208.700149975203
 30
0.0
 11
2196.22405549392
 21
2408.700149975202
 31
0.0
  0
LINE
  5
1BBB
330
1F
100
AcDbEntity
  8
STR
100
AcDbLine
 10
2050.527854830839
 20
2408.700149975202
 30
0.0
 11
2050.527854830839
 21
1108.700149975202
 31
0.0
  0
LINE
  5
1BBC
330
1F
100
AcDbEntity
  8
STR
100
AcDbLine
 10
2050.527854830839
 20
1108.700149975202
 30
0.0
 11
2280.527854830839
 21
1108.700149975202
 31
0.0
  0
LINE
  5
1BBD
330
1F
100
AcDbEntity
  8
STR
100
AcDbLine
 10
2280.527854830839
 20
1108.700149975202
 30
0.0
 11
2280.527854830839
 21
2408.700149975201
 31
0.0
  0
LINE
  5
1BBE
330
1F
100
AcDbEntity
  8
STR
100
AcDbLine
 10
2104.727388792544
 20
1107.310012689553
 30
0.0
 11
2104.727388792544
 21
2408.700149975202
 31
0.0
  0
LINE
  5
1BBF
330
1F
100
AcDbEntity
  8
STR
100
AcDbLine
 10
2226.328320869132
 20
1107.310012689553
 30
0.0
 11
2226.328320869132
 21
2408.700149975202
 31
0.0
  0
LINE
  5
1C34
330
1F
100
AcDbEntity
  8
STR
100
AcDbLine
 10
1105.527854830838
 20
2635.700149975202
 30
0.0
 11
1905.52785483084
 21
2635.700149975202
 31
0.0
  0
LINE
  5
1C35
330
1F
100
AcDbEntity
  8
STR
100
AcDbLine
 10
1105.527854830838
 20
2575.700149975202
 30
0.0
 11
1905.527854830839
 21
2575.7001499752
 31
0.0
  0
LINE
  5
1C43
330
1F
100
AcDbEntity
  8
STR
100
AcDbLine
 10
1635.527854830838
 20
3438.343036790087
 30
0.0
 11
1585.527854830839
 21
3438.343036790087
 31
0.0
  0
LINE
  5
1C44
330
1F
100
AcDbEntity
  8
STR
100
AcDbLine
 10
1635.527854830839
 20
3538.343036790087
 30
0.0
 11
1425.52785483084
 21
3538.343036790087
 31
0.0
  0
LINE
  5
1C45
330
1F
100
AcDbEntity
  8
STR
100
AcDbLine
 10
1635.527854830839
 20
3438.343036790087
 30
0.0
 11
1635.527854830839
 21
3538.343036790087
 31
0.0
  0
LINE
  5
1C46
330
1F
100
AcDbEntity
  8
STR
100
AcDbLine
 10
1585.527854830839
 20
3288.343036790087
 30
0.0
 11
1585.527854830839
 21
3538.343036790087
 31
0.0
  0
LINE
  5
1C47
330
1F
100
AcDbEntity
  8
STR
100
AcDbLine
 10
1425.527854830839
 20
3288.343036790087
 30
0.0
 11
1425.527854830839
 21
3538.343036790087
 31
0.0
  0
LINE
  5
1C48
330
1F
100
AcDbEntity
  8
STR
100
AcDbLine
 10
1585.527854830839
 20
3288.343036790087
 30
0.0
 11
1425.527854830839
 21
3288.343036790087
 31
0.0
  0
LINE
  5
1C49
330
1F
100
AcDbEntity
  8
BMK
100
AcDbLine
 10
1685.527854830839
 20
3488.343036790087
 30
0.0
 11
1375.527854830839
 21
3488.343036790086
 31
0.0
  0
LINE
  5
1C4D
330
1F
100
AcDbEntity
  8
STR
100
AcDbLine
 10
3335.174508291901
 20
6671.837509970885
 30
0.0
 11
3335.174508291899
 21
5111.837509970881
 31
0.0
  0
LINE
  5
1C4E
330
1F
100
AcDbEntity
  8
STR
100
AcDbLine
 10
2330.527854830839
 20
3208.700149975202
 30
0.0
 11
2890.527854830838
 21
3208.700149975203
 31
0.0
  0
LINE
  5
1C4F
330
1F
100
AcDbEntity
  8
STR
100
AcDbLine
 10
2987.178389198207
 20
708.7001499752022
 30
0.0
 11
3387.178389198207
 21
708.7001499752022
 31
0.0
  0
LINE
  5
1C50
330
1F
100
AcDbEntity
  8
BMK
100
AcDbLine
 10
565.1230645054324
 20
5891.837509970881
 30
0.0
 11
3765.123064505432
 21
5891.837509970881
 31
0.0
  0
LINE
  5
1CDF
330
1F
100
AcDbEntity
  8
BMK
100
AcDbLine
 10
1505.527854830839
 20
4655.536512853553
 30
0.0
 11
1505.527854830839
 21
6753.859626032668
 31
0.0
  0
LINE
  5
1CE2
330
1F
100
AcDbEntity
  8
STR
100
AcDbLine
 10
2065.171345376855
 20
5391.837509970882
 30
0.0
 11
2065.171345376855
 21
6391.837509970881
 31
0.0
  0
LINE
  5
1CE3
330
1F
100
AcDbEntity
  8
STR
100
AcDbLine
 10
2170.000183246107
 20
6391.837509970881
 30
0.0
 11
2170.000183246107
 21
6267.614437032827
 31
0.0
  0
LINE
  5
1CE4
330
1F
100
AcDbEntity
  8
STR
100
AcDbLine
 10
2170.000183246107
 20
6267.614437032827
 30
0.0
 11
2125.411953170476
 21
6267.614437032827
 31
0.0
  0
LINE
  5
1CE5
330
1F
100
AcDbEntity
  8
STR
100
AcDbLine
 10
2065.171345376855
 20
6203.060414657108
 30
0.0
 11
2125.411953170476
 21
6203.060414657108
 31
0.0
  0
LINE
  5
1CE6
330
1F
100
AcDbEntity
  8
STR
100
AcDbLine
 10
2125.411953170476
 20
6203.060414657108
 30
0.0
 11
2125.411953170476
 21
6341.55809048145
 31
0.0
  0
LINE
  5
1CE7
330
1F
100
AcDbEntity
  8
STR
100
AcDbLine
 10
2125.411953170476
 20
6341.55809048145
 30
0.0
 11
2065.569852667615
 21
6341.55809048145
 31
0.0
  0
LINE
  5
1CE8
330
1F
100
AcDbEntity
  8
STR
100
AcDbLine
 10
2065.171345376855
 20
5580.614605284655
 30
0.0
 11
2125.411953170476
 21
5580.614605284655
 31
0.0
  0
LINE
  5
1CE9
330
1F
100
AcDbEntity
  8
STR
100
AcDbLine
 10
2125.411953170476
 20
5580.614605284655
 30
0.0
 11
2125.411953170476
 21
5442.116929460312
 31
0.0
  0
LINE
  5
1CEA
330
1F
100
AcDbEntity
  8
STR
100
AcDbLine
 10
2125.411953170476
 20
5442.116929460312
 30
0.0
 11
2065.569852667615
 21
5442.116929460312
 31
0.0
  0
LINE
  5
1CEB
330
1F
100
AcDbEntity
  8
STR
100
AcDbLine
 10
2170.000183246107
 20
5391.837509970882
 30
0.0
 11
2170.000183246107
 21
5516.060582908934
 31
0.0
  0
LINE
  5
1CEC
330
1F
100
AcDbEntity
  8
STR
100
AcDbLine
 10
2170.000183246107
 20
5516.060582908934
 30
0.0
 11
2125.411953170476
 21
5516.060582908934
 31
0.0
  0
LINE
  5
1CED
330
1F
100
AcDbEntity
  8
STR
100
AcDbLine
 10
2245.549500677594
 20
5441.837509970881
 30
0.0
 11
2245.549500677594
 21
6341.837509970881
 31
0.0
  0
LINE
  5
1CEE
330
1F
100
AcDbEntity
  8
STR
100
AcDbLine
 10
2245.549500677594
 20
5441.837509970881
 30
0.0
 11
2280.527854830839
 21
5441.837509970881
 31
0.0
  0
LINE
  5
1CEF
330
1F
100
AcDbEntity
  8
STR
100
AcDbLine
 10
2245.549500677594
 20
6341.837509970881
 30
0.0
 11
2280.527854830839
 21
6341.837509970881
 31
0.0
  0
LINE
  5
1CF0
330
1F
100
AcDbEntity
  8
STR
100
AcDbLine
 10
2125.411953170476
 20
5580.614605284655
 30
0.0
 11
2245.549500677594
 21
5580.614605284655
 31
0.0
  0
LINE
  5
1CF1
330
1F
100
AcDbEntity
  8
STR
100
AcDbLine
 10
2125.411953170476
 20
5534.889175788883
 30
0.0
 11
2245.549500677594
 21
5534.889175788883
 31
0.0
  0
LINE
  5
1CF2
330
1F
100
AcDbEntity
  8
STR
100
AcDbLine
 10
2125.411953170476
 20
6203.060414657107
 30
0.0
 11
2245.549500677594
 21
6203.060414657107
 31
0.0
  0
LINE
  5
1CF3
330
1F
100
AcDbEntity
  8
STR
100
AcDbLine
 10
2125.411953170476
 20
6248.785844152878
 30
0.0
 11
2245.549500677594
 21
6248.785844152878
 31
0.0
  0
LINE
  5
1CF4
330
1F
100
AcDbEntity
  8
STR
100
AcDbLine
 10
2280.527854830839
 20
5441.837509970881
 30
0.0
 11
2280.527854830839
 21
6341.837509970881
 31
0.0
  0
LINE
  5
1CF5
330
1F
100
AcDbEntity
  8
STR
100
AcDbLine
 10
2024.696120746797
 20
5391.837509970881
 30
0.0
 11
2170.000183246107
 21
5391.837509970881
 31
0.0
  0
LINE
  5
1CF6
330
1F
100
AcDbEntity
  8
STR
100
AcDbLine
 10
2024.696120746797
 20
6391.83750997088
 30
0.0
 11
2170.000183246107
 21
6391.837509970881
 31
0.0
  0
CIRCLE
  5
1CF8
330
1F
100
AcDbEntity
  8
STR
100
AcDbCircle
 10
2152.611987788819
 20
5891.837509970881
 30
0.0
 40
65.59602631549005
  0
LINE
  5
1CF9
330
1F
100
AcDbEntity
  8
STR
100
AcDbLine
 10
2245.549500677594
 20
5702.611726941299
 30
0.0
 11
2173.915446547865
 21
5702.611726941299
 31
0.0
  0
LINE
  5
1CFA
330
1F
100
AcDbEntity
  8
STR
100
AcDbLine
 10
2173.915446547865
 20
5702.611726941299
 30
0.0
 11
2173.915446547865
 21
5829.797189909778
 31
0.0
  0
LINE
  5
1CFB
330
1F
100
AcDbEntity
  8
STR
100
AcDbLine
 10
2209.73247361273
 20
5702.611726941299
 30
0.0
 11
2209.73247361273
 21
5859.587102723486
 31
0.0
  0
LINE
  5
1CFC
330
1F
100
AcDbEntity
  8
STR
100
AcDbLine
 10
2245.549500677594
 20
6081.063293000463
 30
0.0
 11
2173.915446547865
 21
6081.063293000463
 31
0.0
  0
LINE
  5
1CFD
330
1F
100
AcDbEntity
  8
STR
100
AcDbLine
 10
2173.915446547865
 20
6081.063293000463
 30
0.0
 11
2173.915446547865
 21
5953.877830031984
 31
0.0
  0
LINE
  5
1CFE
330
1F
100
AcDbEntity
  8
STR
100
AcDbLine
 10
2209.73247361273
 20
6081.063293000463
 30
0.0
 11
2209.73247361273
 21
5924.087917218276
 31
0.0
  0
LINE
  5
1CFF
330
1F
100
AcDbEntity
  8
STR
100
AcDbLine
 10
2152.611987788819
 20
5957.433536286371
 30
0.0
 11
2152.611987788819
 21
5826.24148365539
 31
0.0
  0
LINE
  5
1D00
330
1F
100
AcDbEntity
  8
STR
100
AcDbLine
 10
2065.171345376855
 20
5710.400300710999
 30
0.0
 11
2113.095958183252
 21
5710.400300710999
 31
0.0
  0
LINE
  5
1D01
330
1F
100
AcDbEntity
  8
STR
100
AcDbLine
 10
2113.095958183252
 20
5710.400300710999
 30
0.0
 11
2113.095958183252
 21
5839.479873731318
 31
0.0
  0
LINE
  5
1D02
330
1F
100
AcDbEntity
  8
STR
100
AcDbLine
 10
2065.171345376855
 20
6073.274719230764
 30
0.0
 11
2113.095958183252
 21
6073.274719230764
 31
0.0
  0
LINE
  5
1D03
330
1F
100
AcDbEntity
  8
STR
100
AcDbLine
 10
2113.095958183252
 20
6073.274719230764
 30
0.0
 11
2113.095958183252
 21
5944.195146210446
 31
0.0
  0
LINE
  5
1D18
330
1F
100
AcDbEntity
  8
STR
100
AcDbLine
 10
1030.527854830839
 20
5612.565973336355
 30
0.0
 11
1157.288574987383
 21
5451.837509970881
 31
0.0
  0
LINE
  5
1D19
330
1F
100
AcDbEntity
  8
STR
100
AcDbLine
 10
1943.991938846388
 20
5633.659994265066
 30
0.0
 11
1800.59512805641
 21
5451.837509970881
 31
0.0
  0
LINE
  5
1D1A
330
1F
100
AcDbEntity
  8
STR
100
AcDbLine
 10
1800.59512805641
 20
5451.837509970881
 30
0.0
 11
1157.288574987383
 21
5451.837509970881
 31
0.0
  0
LINE
  5
1D1B
330
1F
100
AcDbEntity
  8
STR
100
AcDbLine
 10
1030.527854830839
 20
6171.109046605407
 30
0.0
 11
1157.288574987383
 21
6331.837509970881
 31
0.0
  0
LINE
  5
1D1C
330
1F
100
AcDbEntity
  8
STR
100
AcDbLine
 10
1800.59512805641
 20
6331.837509970881
 30
0.0
 11
1157.288574987383
 21
6331.837509970881
 31
0.0
  0
CIRCLE
  5
1D1D
330
1F
100
AcDbEntity
  8
STR
100
AcDbCircle
 10
1505.527854830839
 20
5891.837509970881
 30
0.0
 40
47.56389028580669
  0
CIRCLE
  5
1D1E
330
1F
100
AcDbEntity
  8
STR
100
AcDbCircle
 10
1505.527854830839
 20
5891.837509970881
 30
0.0
 40
143.3898892527044
  0
CIRCLE
  5
1D1F
330
1F
100
AcDbEntity
  8
STR
100
AcDbCircle
 10
1505.527854830839
 20
5891.837509970881
 30
0.0
 40
263.5902126193423
  0
ARC
  5
1D20
330
1F
100
AcDbEntity
  8
STR
100
AcDbCircle
 10
1505.527854830839
 20
5891.837509970881
 30
0.0
 40
381.512513590677
100
AcDbArc
 50
291.2808587672409
 51
68.71914123275977
  0
LINE
  5
1D21
330
1F
100
AcDbEntity
  8
STR
100
AcDbLine
 10
1030.527854830839
 20
5612.565973336355
 30
0.0
 11
1030.527854830839
 21
6175.716315344262
 31
0.0
  0
LINE
  5
1D22
330
1F
100
AcDbEntity
  8
STR
100
AcDbLine
 10
1164.733856389696
 20
5814.633724149079
 30
0.0
 11
1319.141428033299
 21
5814.633724149079
 31
0.0
  0
LINE
  5
1D23
330
1F
100
AcDbEntity
  8
STR
100
AcDbLine
 10
1164.733856389696
 20
5969.041295792681
 30
0.0
 11
1319.141428033299
 21
5969.041295792681
 31
0.0
  0
LINE
  5
1D24
330
1F
100
AcDbEntity
  8
BMK
100
AcDbLine
 10
1389.914325025239
 20
6007.45103977648
 30
0.0
 11
1246.927644203833
 21
6150.437720597886
 31
0.0
  0
LINE
  5
1D25
330
1F
100
AcDbEntity
  8
STR
100
AcDbLine
 10
1643.993988620377
 20
5451.837509970881
 30
0.0
 11
1643.993988620377
 21
5536.33936958242
 31
0.0
  0
LINE
  5
1D26
330
1F
100
AcDbEntity
  8
STR
100
AcDbLine
 10
1643.993988620373
 20
6247.335650359344
 30
0.0
 11
1643.993988620373
 21
6331.837509970881
 31
0.0
  0
LINE
  5
1D27
330
1F
100
AcDbEntity
  8
STR
100
AcDbLine
 10
1943.991938846388
 20
6150.015025676696
 30
0.0
 11
1800.59512805641
 21
6331.837509970881
 31
0.0
  0
LINE
  5
1D31
330
1F
100
AcDbEntity
  8
STR
100
AcDbLine
 10
1164.733856389695
 20
5969.041295792681
 30
0.0
 11
1164.733856389696
 21
5814.633724149079
 31
0.0
  0
LINE
  5
1D32
330
1F
100
AcDbEntity
  8
STR
100
AcDbLine
 10
1319.1414280333
 20
5596.2684421976
 30
0.0
 11
1428.324069009038
 21
5705.451083173341
 31
0.0
  0
LINE
  5
1D33
330
1F
100
AcDbEntity
  8
STR
100
AcDbLine
 10
1209.958787057561
 20
5705.45108317334
 30
0.0
 11
1319.141428033299
 21
5814.63372414908
 31
0.0
  0
LINE
  5
1D35
330
1F
100
AcDbEntity
  8
STR
100
AcDbLine
 10
1209.958787057559
 20
5705.45108317334
 30
0.0
 11
1319.1414280333
 21
5596.2684421976
 31
0.0
  0
LINE
  5
1D36
330
1F
100
AcDbEntity
  8
STR
100
AcDbLine
 10
1582.731640652642
 20
5551.043511529737
 30
0.0
 11
1582.731640652641
 21
5705.451083173341
 31
0.0
  0
LINE
  5
1D37
330
1F
100
AcDbEntity
  8
STR
100
AcDbLine
 10
1428.324069009039
 20
5551.043511529737
 30
0.0
 11
1428.324069009038
 21
5705.451083173341
 31
0.0
  0
LINE
  5
1D39
330
1F
100
AcDbEntity
  8
STR
100
AcDbLine
 10
1428.324069009038
 20
5551.043511529737
 30
0.0
 11
1582.731640652642
 21
5551.043511529737
 31
0.0
  0
LINE
  5
1D3A
330
1F
100
AcDbEntity
  8
STR
100
AcDbLine
 10
1801.09692260412
 20
5705.451083173342
 30
0.0
 11
1691.914281628379
 21
5814.633724149081
 31
0.0
  0
LINE
  5
1D3B
330
1F
100
AcDbEntity
  8
STR
100
AcDbLine
 10
1691.91428162838
 20
5596.268442197603
 30
0.0
 11
1582.731640652641
 21
5705.451083173342
 31
0.0
  0
LINE
  5
1D3D
330
1F
100
AcDbEntity
  8
STR
100
AcDbLine
 10
1691.91428162838
 20
5596.268442197602
 30
0.0
 11
1801.09692260412
 21
5705.451083173342
 31
0.0
  0
LINE
  5
1D3E
330
1F
100
AcDbEntity
  8
STR
100
AcDbLine
 10
1846.321853271982
 20
5969.041295792681
 30
0.0
 11
1691.914281628379
 21
5969.041295792681
 31
0.0
  0
LINE
  5
1D3F
330
1F
100
AcDbEntity
  8
STR
100
AcDbLine
 10
1846.321853271982
 20
5814.633724149079
 30
0.0
 11
1691.914281628379
 21
5814.633724149079
 31
0.0
  0
LINE
  5
1D41
330
1F
100
AcDbEntity
  8
STR
100
AcDbLine
 10
1846.321853271983
 20
5814.633724149079
 30
0.0
 11
1846.321853271982
 21
5969.041295792681
 31
0.0
  0
LINE
  5
1D42
330
1F
100
AcDbEntity
  8
STR
100
AcDbLine
 10
1691.914281628379
 20
6187.406577744162
 30
0.0
 11
1582.73164065264
 21
6078.223936768421
 31
0.0
  0
LINE
  5
1D43
330
1F
100
AcDbEntity
  8
STR
100
AcDbLine
 10
1801.096922604118
 20
6078.223936768423
 30
0.0
 11
1691.914281628379
 21
5969.041295792683
 31
0.0
  0
LINE
  5
1D45
330
1F
100
AcDbEntity
  8
STR
100
AcDbLine
 10
1801.096922604119
 20
6078.223936768423
 30
0.0
 11
1691.914281628379
 21
6187.406577744162
 31
0.0
  0
LINE
  5
1D46
330
1F
100
AcDbEntity
  8
STR
100
AcDbLine
 10
1428.324069009036
 20
6232.631508412024
 30
0.0
 11
1428.324069009037
 21
6078.223936768421
 31
0.0
  0
LINE
  5
1D47
330
1F
100
AcDbEntity
  8
STR
100
AcDbLine
 10
1582.731640652639
 20
6232.631508412024
 30
0.0
 11
1582.73164065264
 21
6078.223936768421
 31
0.0
  0
LINE
  5
1D49
330
1F
100
AcDbEntity
  8
STR
100
AcDbLine
 10
1582.73164065264
 20
6232.631508412025
 30
0.0
 11
1428.324069009036
 21
6232.631508412024
 31
0.0
  0
LINE
  5
1D4A
330
1F
100
AcDbEntity
  8
STR
100
AcDbLine
 10
1209.958787057559
 20
6078.223936768421
 30
0.0
 11
1319.141428033298
 21
5969.041295792683
 31
0.0
  0
LINE
  5
1D4B
330
1F
100
AcDbEntity
  8
STR
100
AcDbLine
 10
1319.141428033298
 20
6187.40657774416
 30
0.0
 11
1428.324069009038
 21
6078.223936768421
 31
0.0
  0
LINE
  5
1D4D
330
1F
100
AcDbEntity
  8
STR
100
AcDbLine
 10
1319.141428033298
 20
6187.406577744162
 30
0.0
 11
1209.958787057559
 21
6078.223936768421
 31
0.0
  0
LINE
  5
1D4E
330
1F
100
AcDbEntity
  8
BMK
100
AcDbLine
 10
1389.91432502524
 20
5776.22398016528
 30
0.0
 11
1246.927644203834
 21
5633.237299343875
 31
0.0
  0
LINE
  5
1D4F
330
1F
100
AcDbEntity
  8
BMK
100
AcDbLine
 10
1621.141384636439
 20
5776.223980165281
 30
0.0
 11
1764.128065457845
 21
5633.237299343874
 31
0.0
  0
LINE
  5
1D50
330
1F
100
AcDbEntity
  8
BMK
100
AcDbLine
 10
1621.141384636438
 20
6007.451039776481
 30
0.0
 11
1764.128065457844
 21
6150.437720597888
 31
0.0
  0
LINE
  5
1D7D
330
1F
100
AcDbEntity
  8
STR
100
AcDbLine
 10
1943.991938846388
 20
6150.015025676696
 30
0.0
 11
2024.696120746798
 21
6150.015025676696
 31
0.0
  0
LINE
  5
1D7E
330
1F
100
AcDbEntity
  8
STR
100
AcDbLine
 10
1943.991938846388
 20
5633.659994265066
 30
0.0
 11
2024.696120746799
 21
5633.659994265066
 31
0.0
  0
LINE
  5
1D81
330
1F
100
AcDbEntity
  8
STR
100
AcDbLine
 10
2330.527854830839
 20
4991.837509970881
 30
0.0
 11
2330.527854830839
 21
5111.837509970881
 31
0.0
  0
LINE
  5
1D82
330
1F
100
AcDbEntity
  8
STR
100
AcDbLine
 10
2510.52785483084
 20
4991.837509970881
 30
0.0
 11
2510.52785483084
 21
6791.837509970881
 31
0.0
  0
LINE
  5
1D83
330
1F
100
AcDbEntity
  8
STR
100
AcDbLine
 10
2710.527854830838
 20
4991.837509970881
 30
0.0
 11
2710.527854830839
 21
6791.837509970881
 31
0.0
  0
LINE
  5
1D84
330
1F
100
AcDbEntity
  8
STR
100
AcDbLine
 10
2890.527854830839
 20
4991.837509970881
 30
0.0
 11
2890.527854830839
 21
5111.837509970881
 31
0.0
  0
LINE
  5
1D86
330
1F
100
AcDbEntity
  8
STR
100
AcDbLine
 10
2330.527854830839
 20
6791.837509970881
 30
0.0
 11
2890.527854830839
 21
6791.837509970881
 31
0.0
  0
LINE
  5
1D87
330
1F
100
AcDbEntity
  8
STR
100
AcDbLine
 10
2330.527854830839
 20
4991.837509970881
 30
0.0
 11
2890.527854830839
 21
4991.837509970881
 31
0.0
  0
LINE
  5
1D88
330
1F
100
AcDbEntity
  8
STR
100
AcDbLine
 10
995.1745082919002
 20
6671.837509970881
 30
0.0
 11
2510.52785483084
 21
6671.837509970882
 31
0.0
  0
LINE
  5
1D89
330
1F
100
AcDbEntity
  8
STR
100
AcDbLine
 10
995.1745082919002
 20
5111.837509970882
 30
0.0
 11
2510.527854830838
 21
5111.837509970882
 31
0.0
  0
LINE
  5
1D8A
330
1F
100
AcDbEntity
  8
STR
100
AcDbLine
 10
995.1745082919002
 20
5311.837509970882
 30
0.0
 11
2510.527854830838
 21
5311.837509970882
 31
0.0
  0
LINE
  5
1D8B
330
1F
100
AcDbEntity
  8
STR
100
AcDbLine
 10
995.1745082919002
 20
6471.837509970881
 30
0.0
 11
2510.52785483084
 21
6471.837509970881
 31
0.0
  0
LINE
  5
1D8C
330
1F
100
AcDbEntity
  8
STR
100
AcDbLine
 10
2330.527854830839
 20
6671.837509970881
 30
0.0
 11
2330.527854830839
 21
6791.837509970881
 31
0.0
  0
LINE
  5
1D8D
330
1F
100
AcDbEntity
  8
STR
100
AcDbLine
 10
2890.527854830839
 20
6671.837509970881
 30
0.0
 11
2890.527854830839
 21
6791.837509970881
 31
0.0
  0
LINE
  5
1D95
330
1F
100
AcDbEntity
  8
STR
100
AcDbLine
 10
995.1745082919003
 20
6671.837509970881
 30
0.0
 11
995.1745082919003
 21
6471.837509970881
 31
0.0
  0
LINE
  5
1D96
330
1F
100
AcDbEntity
  8
STR
100
AcDbLine
 10
995.1745082919003
 20
5311.837509970882
 30
0.0
 11
995.1745082919003
 21
5111.837509970882
 31
0.0
  0
CIRCLE
  5
1DA4
330
1F
100
AcDbEntity
  8
STR
  6
HIDDEN
100
AcDbCircle
 10
2165.123064505432
 20
5888.467786078354
 30
0.0
 40
1500.0
  0
ARC
  5
1DA5
330
1F
100
AcDbEntity
  8
STR
100
AcDbCircle
 10
3187.178389198203
 20
6691.837509970881
 30
0.0
 40
200.0
100
AcDbArc
 50
317.7297626284685
 51
185.7391704772663
  0
LINE
  5
1DA6
330
1F
100
AcDbEntity
  8
BMK
100
AcDbLine
 10
2937.178389198203
 20
6691.837509970881
 30
0.0
 11
3437.178389198203
 21
6691.837509970881
 31
0.0
  0
LINE
  5
1DA7
330
1F
100
AcDbEntity
  8
BMK
100
AcDbLine
 10
3187.178389198203
 20
6941.837509970881
 30
0.0
 11
3187.178389198203
 21
6441.837509970881
 31
0.0
  0
ARC
  5
1DA9
330
1F
100
AcDbEntity
  8
STR
100
AcDbCircle
 10
3187.178389198203
 20
6691.837509970881
 30
0.0
 40
120.0
100
AcDbArc
 50
350.4059317731403
 51
189.5940682268595
  0
ARC
  5
1DAA
330
1F
100
AcDbEntity
  8
STR
100
AcDbCircle
 10
3187.178389198207
 20
5091.837509970882
 30
0.0
 40
120.0
100
AcDbArc
 50
170.4059317731407
 51
9.594068226859949
  0
LINE
  5
1DAB
330
1F
100
AcDbEntity
  8
BMK
100
AcDbLine
 10
3187.178389198209
 20
4841.837509970882
 30
0.0
 11
3187.178389198205
 21
5341.837509970882
 31
0.0
  0
LINE
  5
1DAC
330
1F
100
AcDbEntity
  8
BMK
100
AcDbLine
 10
2937.178389198207
 20
5091.837509970881
 30
0.0
 11
3437.178389198207
 21
5091.837509970884
 31
0.0
  0
ARC
  5
1DAD
330
1F
100
AcDbEntity
  8
STR
100
AcDbCircle
 10
3187.178389198207
 20
5091.837509970882
 30
0.0
 40
200.0
100
AcDbArc
 50
174.260829522734
 51
42.27023737153397
  0
LINE
  5
1DAE
330
1F
100
AcDbEntity
  8
STR
100
AcDbLine
 10
2890.527854830844
 20
5111.837509970881
 30
0.0
 11
2890.527854830844
 21
4991.837509970881
 31
0.0
  0
ARC
  5
1DAF
330
1F
100
AcDbEntity
  8
STR
100
AcDbCircle
 10
1143.170627385598
 20
6691.837509970881
 30
0.0
 40
120.0
100
AcDbArc
 50
350.4059317731403
 51
189.5940682268595
  0
LINE
  5
1DB0
330
1F
100
AcDbEntity
  8
BMK
100
AcDbLine
 10
1143.170627385598
 20
6941.837509970881
 30
0.0
 11
1143.170627385598
 21
6441.837509970881
 31
0.0
  0
LINE
  5
1DB1
330
1F
100
AcDbEntity
  8
BMK
100
AcDbLine
 10
1393.170627385598
 20
6691.837509970881
 30
0.0
 11
893.1706273855986
 21
6691.837509970881
 31
0.0
  0
ARC
  5
1DB2
330
1F
100
AcDbEntity
  8
STR
100
AcDbCircle
 10
1143.170627385598
 20
6691.837509970881
 30
0.0
 40
200.0
100
AcDbArc
 50
354.2608295227336
 51
222.2702373715311
  0
ARC
  5
1DB3
330
1F
100
AcDbEntity
  8
STR
100
AcDbCircle
 10
1143.170627385593
 20
5091.837509970883
 30
0.0
 40
200.0
100
AcDbArc
 50
137.7297626284666
 51
5.739170477265944
  0
LINE
  5
1DB4
330
1F
100
AcDbEntity
  8
BMK
100
AcDbLine
 10
1393.170627385593
 20
5091.837509970882
 30
0.0
 11
893.1706273855931
 21
5091.837509970885
 31
0.0
  0
LINE
  5
1DB5
330
1F
100
AcDbEntity
  8
BMK
100
AcDbLine
 10
1143.170627385591
 20
4841.837509970883
 30
0.0
 11
1143.170627385594
 21
5341.837509970883
 31
0.0
  0
ARC
  5
1DB6
330
1F
100
AcDbEntity
  8
STR
100
AcDbCircle
 10
1143.170627385593
 20
5091.837509970883
 30
0.0
 40
120.0
100
AcDbArc
 50
170.40593177314
 51
9.594068226859238
  0
LINE
  5
1DB8
330
1F
100
AcDbEntity
  8
STR
100
AcDbLine
 10
2710.527854830839
 20
6471.837509970881
 30
0.0
 11
3335.174508291901
 21
6471.837509970881
 31
0.0
  0
LINE
  5
1DB9
330
1F
100
AcDbEntity
  8
STR
100
AcDbLine
 10
2710.527854830839
 20
6671.837509970882
 30
0.0
 11
3335.174508291901
 21
6671.837509970881
 31
0.0
  0
LINE
  5
1DBA
330
1F
100
AcDbEntity
  8
STR
100
AcDbLine
 10
2710.527854830839
 20
5111.837509970882
 30
0.0
 11
3335.174508291899
 21
5111.837509970882
 31
0.0
  0
LINE
  5
1DBB
330
1F
100
AcDbEntity
  8
STR
100
AcDbLine
 10
2710.527854830839
 20
5311.837509970882
 30
0.0
 11
3335.1745082919
 21
5311.837509970882
 31
0.0
  0
LINE
  5
1DBC
330
1F
100
AcDbEntity
  8
STR
100
AcDbLine
 10
2024.696120746797
 20
5391.837509970881
 30
0.0
 11
1905.527854830839
 21
5311.837509970882
 31
0.0
  0
LINE
  5
1DBE
330
1F
100
AcDbEntity
  8
STR
100
AcDbLine
 10
1905.527854830839
 20
5151.837509970882
 30
0.0
 11
2510.527854830838
 21
5151.837509970881
 31
0.0
  0
LINE
  5
1DBF
330
1F
100
AcDbEntity
  8
STR
100
AcDbLine
 10
1905.527854830839
 20
6631.837509970878
 30
0.0
 11
2510.52785483084
 21
6631.837509970882
 31
0.0
  0
LINE
  5
1DC2
330
1F
100
AcDbEntity
  8
STR
100
AcDbLine
 10
2710.527854830839
 20
6631.837509970883
 30
0.0
 11
3187.178389198205
 21
6631.837509970885
 31
0.0
  0
LINE
  5
1DC3
330
1F
100
AcDbEntity
  8
STR
100
AcDbLine
 10
2710.527854830839
 20
5151.837509970881
 30
0.0
 11
3187.178389198207
 21
5151.837509970881
 31
0.0
  0
LINE
  5
1DC4
330
1F
100
AcDbEntity
  8
STR
100
AcDbLine
 10
2330.527854830839
 20
3208.700149975202
 30
0.0
 11
2330.527854830839
 21
738.7001499752023
 31
0.0
  0
LINE
  5
1DC5
330
1F
100
AcDbEntity
  8
STR
100
AcDbLine
 10
2510.527854830838
 20
3208.700149975202
 30
0.0
 11
2510.527854830838
 21
738.7001499752023
 31
0.0
  0
LINE
  5
1DC6
330
1F
100
AcDbEntity
  8
STR
100
AcDbLine
 10
2710.527854830838
 20
3208.700149975202
 30
0.0
 11
2710.527854830838
 21
738.7001499752023
 31
0.0
  0
LINE
  5
1DC7
330
1F
100
AcDbEntity
  8
STR
100
AcDbLine
 10
2890.527854830838
 20
3208.700149975202
 30
0.0
 11
2890.527854830839
 21
738.7001499752023
 31
0.0
  0
LINE
  5
1DC8
330
1F
100
AcDbEntity
  8
STR
100
AcDbLine
 10
995.1745082918995
 20
738.7001499752028
 30
0.0
 11
3335.174508291898
 21
738.7001499752018
 31
0.0
  0
LINE
  5
1DC9
330
1F
100
AcDbEntity
  8
STR
100
AcDbLine
 10
1905.527854830838
 20
968.7001499752023
 30
0.0
 11
3335.1745082919
 21
968.7001499752025
 31
0.0
  0
LINE
  5
1DCA
330
1F
100
AcDbEntity
  8
STR
100
AcDbLine
 10
995.1745082918995
 20
938.7001499752022
 30
0.0
 11
3335.174508291899
 21
938.7001499752022
 31
0.0
  0
LINE
  5
1DCB
330
1F
100
AcDbEntity
  8
STR
100
AcDbLine
 10
995.1745082918995
 20
938.7001499752022
 30
0.0
 11
995.1745082918995
 21
738.7001499752023
 31
0.0
  0
LINE
  5
1DCC
330
1F
100
AcDbEntity
  8
STR
100
AcDbLine
 10
3335.174508291899
 20
968.7001499752032
 30
0.0
 11
3335.174508291898
 21
738.7001499752023
 31
0.0
  0
LINE
  5
1DCD
330
1F
100
AcDbEntity
  8
BMK
100
AcDbLine
 10
3187.178389198209
 20
1168.700149975202
 30
0.0
 11
3187.178389198207
 21
608.7001499752022
 31
0.0
  0
LINE
  5
1DD1
330
1F
100
AcDbEntity
  8
STR
100
AcDbLine
 10
3187.178389198207
 20
968.7001499752023
 30
0.0
 11
2890.527854830838
 21
1468.700149975202
 31
0.0
  0
LINE
  5
1DD4
330
1F
100
AcDbEntity
  8
STR
100
AcDbLine
 10
1905.527854830838
 20
968.7001499752023
 30
0.0
 11
1905.527854830838
 21
938.7001499752027
 31
0.0
  0
LINE
  5
1DD5
330
1F
100
AcDbEntity
  8
STR
100
AcDbLine
 10
2330.527854830839
 20
1468.700149975202
 30
0.0
 11
1905.527854830838
 21
968.7001499752023
 31
0.0
  0
LINE
  5
1DD9
330
1F
100
AcDbEntity
  8
STR
100
AcDbLine
 10
2987.178389198207
 20
708.7001499752022
 30
0.0
 11
2987.178389198207
 21
738.7001499752018
 31
0.0
  0
LINE
  5
1DDA
330
1F
100
AcDbEntity
  8
STR
100
AcDbLine
 10
3387.178389198207
 20
708.7001499752022
 30
0.0
 11
3387.178389198207
 21
738.7001499752018
 31
0.0
  0
LINE
  5
1DDB
330
1F
100
AcDbEntity
  8
BMK
100
AcDbLine
 10
1143.17062738559
 20
1168.700149975202
 30
0.0
 11
1143.17062738559
 21
608.7001499752032
 31
0.0
  0
LINE
  5
1DDC
330
1F
100
AcDbEntity
  8
STR
100
AcDbLine
 10
943.1706273855905
 20
708.7001499752027
 30
0.0
 11
1343.17062738559
 21
708.7001499752027
 31
0.0
  0
LINE
  5
1DE8
330
1F
100
AcDbEntity
  8
STR
100
AcDbLine
 10
2510.527854830838
 20
3108.700149975202
 30
0.0
 11
2710.527854830838
 21
3108.700149975202
 31
0.0
  0
LINE
  5
1DE9
330
1F
100
AcDbEntity
  8
STR
100
AcDbLine
 10
2510.527854830838
 20
2808.700149975202
 30
0.0
 11
2710.527854830838
 21
2808.700149975202
 31
0.0
  0
LINE
  5
1DEA
330
1F
100
AcDbEntity
  8
BMK
100
AcDbLine
 10
2240.052630200783
 20
2958.700149975202
 30
0.0
 11
2565.290242515811
 21
2958.700149975202
 31
0.0
  0
LINE
  5
1DEB
330
1F
100
AcDbEntity
  8
STR
100
AcDbLine
 10
2280.527854830839
 20
3033.700149975201
 30
0.0
 11
2460.527854830838
 21
3033.700149975203
 31
0.0
  0
LINE
  5
1DEC
330
1F
100
AcDbEntity
  8
STR
100
AcDbLine
 10
2280.527854830839
 20
2883.700149975202
 30
0.0
 11
2460.527854830838
 21
2883.700149975203
 31
0.0
  0
LINE
  5
1DED
330
1F
100
AcDbEntity
  8
STR
100
AcDbLine
 10
2460.527854830838
 20
3033.700149975203
 30
0.0
 11
2460.527854830838
 21
2883.700149975203
 31
0.0
  0
LINE
  5
1DEF
330
1F
100
AcDbEntity
  8
BMK
100
AcDbLine
 10
2410.527854830839
 20
3003.700149975203
 30
0.0
 11
2410.527854830839
 21
2913.700149975203
 31
0.0
  0
LINE
  5
1DF0
330
1F
100
AcDbEntity
  8
STR
100
AcDbLine
 10
2510.527854830838
 20
1168.700149975202
 30
0.0
 11
2710.527854830838
 21
1168.700149975202
 31
0.0
  0
LINE
  5
1DF2
330
1F
100
AcDbEntity
  8
STR
100
AcDbLine
 10
2510.527854830838
 20
1348.700149975202
 30
0.0
 11
2710.527854830838
 21
1348.700149975202
 31
0.0
  0
LINE
  5
1DF5
330
1F
100
AcDbEntity
  8
STR
100
AcDbLine
 10
2280.527854830839
 20
1318.700149975201
 30
0.0
 11
2330.527854830839
 21
1318.700149975201
 31
0.0
  0
LINE
  5
1DF6
330
1F
100
AcDbEntity
  8
STR
100
AcDbLine
 10
2280.527854830839
 20
1198.700149975202
 30
0.0
 11
2330.527854830839
 21
1198.700149975202
 31
0.0
  0
LINE
  5
1DF7
330
1F
100
AcDbEntity
  8
STR
100
AcDbLine
 10
1105.527854830838
 20
338.7001499752023
 30
0.0
 11
1905.527854830838
 21
338.7001499752023
 31
0.0
  0
ARC
  5
1DFA
330
1F
100
AcDbEntity
  8
STR
100
AcDbCircle
 10
1145.527854830838
 20
338.7001499752032
 30
0.0
 40
40.0
100
AcDbArc
 50
180.0000000000005
 51
359.9999999999994
  0
LINE
  5
1E03
330
1F
100
AcDbEntity
  8
STR
100
AcDbLine
 10
1905.527854830838
 20
5151.837509970882
 30
0.0
 11
1905.527854830839
 21
5311.837509970882
 31
0.0
  0
LINE
  5
1E06
330
1F
100
AcDbEntity
  8
STR
100
AcDbLine
 10
1905.527854830839
 20
6631.837509970878
 30
0.0
 11
1905.527854830839
 21
6471.837509970881
 31
0.0
  0
LINE
  5
1E07
330
1F
100
AcDbEntity
  8
STR
100
AcDbLine
 10
2024.696120746797
 20
6391.83750997088
 30
0.0
 11
1905.527854830839
 21
6471.837509970881
 31
0.0
  0
TEXT
  5
1F30
330
1F
100
AcDbEntity
  8
STR
100
AcDbText
 10
979.7936826178501
 20
3888.018579527273
 30
0.0
 40
60.0
  1
KYT-8090
100
AcDbText
  0
LINE
  5
1F31
330
1F
100
AcDbEntity
  8
STR
100
AcDbLine
 10
958.4001841369527
 20
3863.913447085314
 30
0.0
 11
1475.903808087867
 21
3863.913447085314
 31
0.0
  0
LINE
  5
1F32
330
1F
100
AcDbEntity
  8
STR
100
AcDbLine
 10
1245.917653022086
 20
3048.707063171312
 30
0.0
 11
958.4001841369527
 21
3863.913447085314
 31
0.0
  0
LINE
  5
1F34
330
1F
100
AcDbEntity
  8
STR
100
AcDbLine
 10
705.5278548308388
 20
1502.200149975202
 30
0.0
 11
705.5278548308388
 21
1957.76654906861
 31
0.0
  0
TEXT
  5
1F35
330
1F
100
AcDbEntity
  8
STR
100
AcDbText
 10
681.4227223888804
 20
1543.863142458981
 30
0.0
 40
60.0
  1
MAX800Φ
 50
90.0
100
AcDbText
  0
LINE
  5
1F36
330
1F
100
AcDbEntity
  8
STR
100
AcDbLine
 10
705.5278548308388
 20
1502.200149975202
 30
0.0
 11
1105.527854830838
 21
1502.200149975202
 31
0.0
  0
LINE
  5
1F59
330
1F
100
AcDbEntity
  8
STR
100
AcDbLine
 10
2360.527854830838
 20
6188.467786078355
 30
0.0
 11
2490.52785483084
 21
6188.467786078355
 31
0.0
  0
LINE
  5
1F5A
330
1F
100
AcDbEntity
  8
STR
100
AcDbLine
 10
2360.527854830838
 20
6238.467786078355
 30
0.0
 11
2490.52785483084
 21
6238.467786078355
 31
0.0
  0
LINE
  5
1F5B
330
1F
100
AcDbEntity
  8
STR
100
AcDbLine
 10
2280.527854830839
 20
6288.467786078356
 30
0.0
 11
2490.52785483084
 21
6288.467786078355
 31
0.0
  0
LINE
  5
1F5C
330
1F
100
AcDbEntity
  8
STR
100
AcDbLine
 10
2280.527854830839
 20
6138.467786078354
 30
0.0
 11
2490.52785483084
 21
6138.467786078354
 31
0.0
  0
LINE
  5
1F5D
330
1F
100
AcDbEntity
  8
STR
100
AcDbLine
 10
2490.52785483084
 20
6138.467786078354
 30
0.0
 11
2490.52785483084
 21
6188.467786078354
 31
0.0
  0
LINE
  5
1F5E
330
1F
100
AcDbEntity
  8
STR
100
AcDbLine
 10
2490.52785483084
 20
6238.467786078354
 30
0.0
 11
2490.52785483084
 21
6288.467786078355
 31
0.0
  0
LINE
  5
1F60
330
1F
100
AcDbEntity
  8
STR
100
AcDbLine
 10
2360.527854830838
 20
6188.467786078355
 30
0.0
 11
2360.527854830838
 21
6238.467786078355
 31
0.0
  0
LINE
  5
1F6C
330
1F
100
AcDbEntity
  8
STR
100
AcDbLine
 10
1105.527854830838
 20
2665.700149975203
 30
0.0
 11
1105.527854830838
 21
338.7001499752027
 31
0.0
  0
LINE
  5
1F6D
330
1F
100
AcDbEntity
  8
STR
100
AcDbLine
 10
1905.527854830838
 20
2665.700149975203
 30
0.0
 11
1905.527854830838
 21
338.7001499752027
 31
0.0
  0
LINE
  5
208B
330
1F
100
AcDbEntity
  8
STR
100
AcDbLine
 10
1015.527854830838
 20
2973.26949466079
 30
0.0
 11
2007.408174202225
 21
2973.26949466079
 31
0.0
  0
LINE
  5
208C
330
1F
100
AcDbEntity
  8
STR
100
AcDbLine
 10
1124.015341240162
 20
2973.26949466079
 30
0.0
 11
1124.015341240162
 21
3155.900422145844
 31
0.0
  0
LINE
  5
208D
330
1F
100
AcDbEntity
  8
STR
100
AcDbLine
 10
1319.141428033298
 20
3155.900422145844
 30
0.0
 11
1319.141428033298
 21
2973.26949466079
 31
0.0
  0
LINE
  5
208E
330
1F
100
AcDbEntity
  8
STR
100
AcDbLine
 10
1434.285020125658
 20
3155.900422145844
 30
0.0
 11
1434.285020125658
 21
2973.26949466079
 31
0.0
  0
LINE
  5
208F
330
1F
100
AcDbEntity
  8
STR
100
AcDbLine
 10
1887.040368421515
 20
3155.900422145844
 30
0.0
 11
1124.015341240162
 21
3155.900422145844
 31
0.0
  0
LINE
  5
2090
330
1F
100
AcDbEntity
  8
STR
100
AcDbLine
 10
1505.527854830839
 20
3155.900422145844
 30
0.0
 11
1505.527854830839
 21
2973.26949466079
 31
0.0
  0
LINE
  5
2091
330
1F
100
AcDbEntity
  8
STR
100
AcDbLine
 10
1576.77068953602
 20
3155.900422145844
 30
0.0
 11
1576.77068953602
 21
2973.26949466079
 31
0.0
  0
LINE
  5
2092
330
1F
100
AcDbEntity
  8
STR
100
AcDbLine
 10
1691.914281628379
 20
3155.900422145844
 30
0.0
 11
1691.914281628379
 21
3012.37555967511
 31
0.0
  0
LINE
  5
2093
330
1F
100
AcDbEntity
  8
STR
100
AcDbLine
 10
1015.527854830839
 20
2928.537190371545
 30
0.0
 11
1995.527854830839
 21
2928.537190371544
 31
0.0
  0
LINE
  5
2094
330
1F
100
AcDbEntity
  8
STR
100
AcDbLine
 10
1015.527854830838
 20
2779.892594455467
 30
0.0
 11
1995.527854830839
 21
2779.892594455466
 31
0.0
  0
LINE
  5
2095
330
1F
100
AcDbEntity
  8
STR
100
AcDbLine
 10
1015.527854830838
 20
2735.160290166221
 30
0.0
 11
2007.408174202225
 21
2735.16029016622
 31
0.0
  0
LINE
  5
2096
330
1F
100
AcDbEntity
  8
STR
100
AcDbLine
 10
1037.332135698118
 20
2854.214892413505
 30
0.0
 11
1973.723573963559
 21
2854.214892413506
 31
0.0
  0
LINE
  5
2097
330
1F
100
AcDbEntity
  8
STR
100
AcDbLine
 10
1064.236895243023
 20
2665.700149975203
 30
0.0
 11
1064.236895243023
 21
2735.160290166221
 31
0.0
  0
LINE
  5
209A
330
1F
100
AcDbEntity
  8
STR
100
AcDbLine
 10
1643.993988620391
 20
2973.26949466079
 30
0.0
 11
1643.99398862039
 21
3012.375559675109
 31
0.0
  0
LINE
  5
209B
330
1F
100
AcDbEntity
  8
STR
100
AcDbLine
 10
1643.99398862039
 20
3012.375559675109
 30
0.0
 11
2025.527854830839
 21
3012.375559675109
 31
0.0
  0
LINE
  5
209C
330
1F
100
AcDbEntity
  8
STR
100
AcDbLine
 10
1643.99398862039
 20
2696.054225151902
 30
0.0
 11
2025.527854830839
 21
2696.054225151902
 31
0.0
  0
LINE
  5
209D
330
1F
100
AcDbEntity
  8
STR
100
AcDbLine
 10
1643.993988620391
 20
2735.160290166221
 30
0.0
 11
1643.99398862039
 21
2696.054225151902
 31
0.0
  0
LINE
  5
209E
330
1F
100
AcDbEntity
  8
STR
100
AcDbLine
 10
1924.904987291299
 20
3187.766591155653
 30
0.0
 11
1924.904987291299
 21
3110.219801603422
 31
0.0
  0
LINE
  5
209F
330
1F
100
AcDbEntity
  8
STR
100
AcDbLine
 10
1924.904987291299
 20
3187.766591155653
 30
0.0
 11
2025.527854830839
 21
3187.766591155653
 31
0.0
  0
LINE
  5
20A0
330
1F
100
AcDbEntity
  8
STR
100
AcDbLine
 10
1924.904987291299
 20
3110.219801603422
 30
0.0
 11
2025.527854830839
 21
3110.219801603422
 31
0.0
  0
LINE
  5
20A1
330
1F
100
AcDbEntity
  8
STR
100
AcDbLine
 10
2065.171345376854
 20
3208.700149975203
 30
0.0
 11
2065.171345376854
 21
2408.700149975202
 31
0.0
  0
LINE
  5
20A2
330
1F
100
AcDbEntity
  8
STR
100
AcDbLine
 10
1887.040368421516
 20
3012.375559675109
 30
0.0
 11
1887.040368421516
 21
3155.900422145844
 31
0.0
  0
LINE
  5
20A3
330
1F
100
AcDbEntity
  8
STR
100
AcDbLine
 10
1995.527854830839
 20
2973.26949466079
 30
0.0
 11
1995.527854830839
 21
2928.537190371545
 31
0.0
  0
LINE
  5
20A4
330
1F
100
AcDbEntity
  8
STR
100
AcDbLine
 10
1973.723573963559
 20
2854.214892413505
 30
0.0
 11
1973.723573963559
 21
2928.537190371544
 31
0.0
  0
LINE
  5
20A5
330
1F
100
AcDbEntity
  8
STR
100
AcDbLine
 10
1973.723573963559
 20
2854.214892413505
 30
0.0
 11
1973.723573963559
 21
2779.892594455467
 31
0.0
  0
LINE
  5
20A6
330
1F
100
AcDbEntity
  8
STR
100
AcDbLine
 10
1995.527854830839
 20
2735.160290166221
 30
0.0
 11
1995.527854830839
 21
2779.892594455467
 31
0.0
  0
LINE
  5
20A7
330
1F
100
AcDbEntity
  8
STR
100
AcDbLine
 10
1164.733856389696
 20
2973.26949466079
 30
0.0
 11
1164.733856389696
 21
3155.900422145844
 31
0.0
  0
LINE
  5
20A8
330
1F
100
AcDbEntity
  8
STR
100
AcDbLine
 10
1846.321853271982
 20
3012.375559675109
 30
0.0
 11
1846.321853271982
 21
3155.900422145844
 31
0.0
  0
LINE
  5
20A9
330
1F
100
AcDbEntity
  8
STR
100
AcDbLine
 10
2025.527854830839
 20
3208.700149975203
 30
0.0
 11
2025.527854830839
 21
2408.700149975202
 31
0.0
  0
LINE
  5
20AA
330
1F
100
AcDbEntity
  8
STR
100
AcDbLine
 10
2007.408174202225
 20
2973.26949466079
 30
0.0
 11
2007.408174202225
 21
2735.160290166221
 31
0.0
  0
LINE
  5
20AB
330
1F
100
AcDbEntity
  8
STR
100
AcDbLine
 10
1015.527854830838
 20
2973.26949466079
 30
0.0
 11
1015.527854830838
 21
2928.537190371545
 31
0.0
  0
LINE
  5
20AC
330
1F
100
AcDbEntity
  8
STR
100
AcDbLine
 10
1037.332135698118
 20
2854.214892413505
 30
0.0
 11
1037.332135698118
 21
2928.537190371544
 31
0.0
  0
LINE
  5
20AD
330
1F
100
AcDbEntity
  8
STR
100
AcDbLine
 10
1037.332135698118
 20
2854.214892413505
 30
0.0
 11
1037.332135698118
 21
2779.892594455467
 31
0.0
  0
LINE
  5
20AE
330
1F
100
AcDbEntity
  8
STR
100
AcDbLine
 10
1015.527854830838
 20
2735.16029016622
 30
0.0
 11
1015.527854830838
 21
2779.892594455467
 31
0.0
  0
LINE
  5
20CC
330
1F
100
AcDbEntity
  8
STR
100
AcDbLine
 10
1946.818814418654
 20
2665.700149975203
 30
0.0
 11
1946.818814418654
 21
2696.054225151903
 31
0.0
  0
ARC
  5
20CE
330
1F
100
AcDbEntity
  8
STR
100
AcDbCircle
 10
1225.527854830838
 20
338.7001499752032
 30
0.0
 40
40.0
100
AcDbArc
 50
180.0000000000005
 51
359.9999999999994
  0
ARC
  5
20CF
330
1F
100
AcDbEntity
  8
STR
100
AcDbCircle
 10
1305.527854830838
 20
338.7001499752032
 30
0.0
 40
40.0
100
AcDbArc
 50
180.0000000000005
 51
359.9999999999994
  0
ARC
  5
20D0
330
1F
100
AcDbEntity
  8
STR
100
AcDbCircle
 10
1385.527854830838
 20
338.7001499752032
 30
0.0
 40
40.0
100
AcDbArc
 50
180.0000000000005
 51
359.9999999999994
  0
ARC
  5
20D1
330
1F
100
AcDbEntity
  8
STR
100
AcDbCircle
 10
1465.527854830838
 20
338.7001499752032
 30
0.0
 40
40.0
100
AcDbArc
 50
180.0000000000005
 51
359.9999999999994
  0
ARC
  5
20D2
330
1F
100
AcDbEntity
  8
STR
100
AcDbCircle
 10
1545.527854830838
 20
338.7001499752032
 30
0.0
 40
40.0
100
AcDbArc
 50
180.0000000000005
 51
359.9999999999994
  0
ARC
  5
20D3
330
1F
100
AcDbEntity
  8
STR
100
AcDbCircle
 10
1625.527854830838
 20
338.7001499752032
 30
0.0
 40
40.0
100
AcDbArc
 50
180.0000000000005
 51
359.9999999999994
  0
ARC
  5
20D4
330
1F
100
AcDbEntity
  8
STR
100
AcDbCircle
 10
1705.527854830838
 20
338.7001499752032
 30
0.0
 40
40.0
100
AcDbArc
 50
180.0000000000005
 51
359.9999999999994
  0
ARC
  5
20D5
330
1F
100
AcDbEntity
  8
STR
100
AcDbCircle
 10
1785.527854830838
 20
338.7001499752032
 30
0.0
 40
40.0
100
AcDbArc
 50
180.0000000000005
 51
359.9999999999994
  0
ARC
  5
20D6
330
1F
100
AcDbEntity
  8
STR
100
AcDbCircle
 10
1865.527854830838
 20
338.7001499752032
 30
0.0
 40
40.0
100
AcDbArc
 50
180.0000000000005
 51
359.9999999999994
  0
LINE
  5
211D
330
1F
100
AcDbEntity
  8
STR
100
AcDbLine
 10
855.5278548308388
 20
2950.903342516168
 30
0.0
 11
855.5278548308388
 21
2757.526442310845
 31
0.0
  0
LINE
  5
211E
330
1F
100
AcDbEntity
  8
STR
100
AcDbLine
 10
775.5278548308388
 20
2903.537190371544
 30
0.0
 11
775.5278548308383
 21
2804.892594455467
 31
0.0
  0
LINE
  5
211F
330
1F
100
AcDbEntity
  8
STR
100
AcDbLine
 10
1015.527854830838
 20
2779.892594455467
 30
0.0
 11
1015.527854830838
 21
2928.537190371545
 31
0.0
  0
LINE
  5
2120
330
1F
100
AcDbEntity
  8
STR
100
AcDbLine
 10
1015.527854830838
 20
2757.526442310844
 30
0.0
 11
855.5278548308388
 21
2757.526442310844
 31
0.0
  0
LINE
  5
2121
330
1F
100
AcDbEntity
  8
STR
100
AcDbLine
 10
1015.527854830838
 20
2950.903342516168
 30
0.0
 11
855.5278548308388
 21
2950.903342516168
 31
0.0
  0
LINE
  5
2122
330
1F
100
AcDbEntity
  8
STR
100
AcDbLine
 10
775.5278548308383
 20
2804.892594455467
 30
0.0
 11
855.5278548308388
 21
2804.892594455467
 31
0.0
  0
LINE
  5
2123
330
1F
100
AcDbEntity
  8
STR
100
AcDbLine
 10
775.5278548308388
 20
2903.537190371545
 30
0.0
 11
855.5278548308383
 21
2903.537190371545
 31
0.0
  0
LINE
  5
2136
330
1F
100
AcDbEntity
  8
STR
100
AcDbLine
 10
790.5278548308395
 20
5771.837509970881
 30
0.0
 11
790.5278548308395
 21
6011.837509970881
 31
0.0
  0
LINE
  5
2137
330
1F
100
AcDbEntity
  8
STR
100
AcDbLine
 10
870.5278548308395
 20
5741.837509970881
 30
0.0
 11
870.5278548308395
 21
6041.837509970881
 31
0.0
  0
LINE
  5
2138
330
1F
100
AcDbEntity
  8
STR
100
AcDbLine
 10
1030.527854830839
 20
6041.837509970881
 30
0.0
 11
870.5278548308395
 21
6041.837509970881
 31
0.0
  0
LINE
  5
2139
330
1F
100
AcDbEntity
  8
STR
100
AcDbLine
 10
1030.527854830839
 20
5741.837509970881
 30
0.0
 11
870.5278548308395
 21
5741.837509970881
 31
0.0
  0
LINE
  5
213A
330
1F
100
AcDbEntity
  8
STR
100
AcDbLine
 10
870.5278548308395
 20
5771.837509970881
 30
0.0
 11
790.5278548308395
 21
5771.837509970881
 31
0.0
  0
LINE
  5
213B
330
1F
100
AcDbEntity
  8
STR
100
AcDbLine
 10
870.5278548308395
 20
6011.837509970881
 30
0.0
 11
790.5278548308395
 21
6011.837509970881
 31
0.0
  0
LINE
  5
213D
330
1F
100
AcDbEntity
  8
STR
100
AcDbLine
 10
2007.408174202225
 20
5633.659994265066
 30
0.0
 11
2007.408174202225
 21
6150.015025676696
 31
0.0
  0
LINE
  5
213E
330
1F
100
AcDbEntity
  8
STR
100
AcDbLine
 10
2024.696120746797
 20
5391.837509970881
 30
0.0
 11
2024.696120746797
 21
6391.83750997088
 31
0.0
  0
LINE
  5
218C
330
1F
100
AcDbEntity
  8
STR
100
AcDbLine
 10
2360.527854830838
 20
5595.207233863408
 30
0.0
 11
2360.527854830838
 21
5545.207233863408
 31
0.0
  0
LINE
  5
218D
330
1F
100
AcDbEntity
  8
STR
100
AcDbLine
 10
2490.52785483084
 20
5545.207233863408
 30
0.0
 11
2490.52785483084
 21
5495.207233863407
 31
0.0
  0
LINE
  5
218E
330
1F
100
AcDbEntity
  8
STR
100
AcDbLine
 10
2490.52785483084
 20
5645.207233863407
 30
0.0
 11
2490.52785483084
 21
5595.207233863408
 31
0.0
  0
LINE
  5
218F
330
1F
100
AcDbEntity
  8
STR
100
AcDbLine
 10
2280.527854830839
 20
5645.207233863407
 30
0.0
 11
2490.52785483084
 21
5645.207233863407
 31
0.0
  0
LINE
  5
2190
330
1F
100
AcDbEntity
  8
STR
100
AcDbLine
 10
2280.527854830839
 20
5495.207233863406
 30
0.0
 11
2490.52785483084
 21
5495.207233863407
 31
0.0
  0
LINE
  5
2191
330
1F
100
AcDbEntity
  8
STR
100
AcDbLine
 10
2360.527854830838
 20
5545.207233863408
 30
0.0
 11
2490.52785483084
 21
5545.207233863408
 31
0.0
  0
LINE
  5
2192
330
1F
100
AcDbEntity
  8
STR
100
AcDbLine
 10
2360.527854830838
 20
5595.207233863408
 30
0.0
 11
2490.52785483084
 21
5595.207233863408
 31
0.0
  0
TEXT
  5
219D
330
1F
100
AcDbEntity
  8
STR
100
AcDbText
 10
2434.951648321928
 20
8251.992649879769
 30
0.0
 40
30.0
  1
-ベビーモール-
100
AcDbText
  0
TEXT
  5
219E
330
1F
100
AcDbEntity
  8
STR
100
AcDbText
 10
2713.046636811022
 20
7844.119340437076
 30
0.0
 40
30.0
  1
（寸法の比率は正確です。倍率を合わせて使用してください。）
100
AcDbText
  0
LINE
  5
2200
330
1F
100
AcDbEntity
  8
STR
100
AcDbLine
 10
3418.428389198207
 20
708.7001499752022
 30
0.0
 11
3999.832390543225
 21
708.7001499752021
 31
0.0
  0
LINE
  5
2201
330
1F
100
AcDbEntity
  8
STR
100
AcDbLine
 10
1787.803389198207
 20
3708.700149975202
 30
0.0
 11
3999.832390543226
 21
3708.700149975202
 31
0.0
  0
LINE
  5
2202
330
1F
100
AcDbEntity
  8
STR
100
AcDbLine
 10
3998.582390543225
 20
758.7001499752021
 30
0.0
 11
3998.582390543226
 21
3658.700149975202
 31
0.0
  0
LINE
  5
2206
330
1F
100
AcDbEntity
  8
STR
100
AcDbLine
 10
2723.844264895365
 20
7226.500154982343
 30
0.0
 11
1606.401864115497
 21
4550.435417174361
 31
0.0
  0
LINE
  5
220A
330
1F
100
AcDbEntity
  8
STR
100
AcDbLine
 10
965.1745082919003
 20
4861.212509970882
 30
0.0
 11
965.1745082919003
 21
4226.586958812424
 31
0.0
  0
LINE
  5
220B
330
1F
100
AcDbEntity
  8
STR
100
AcDbLine
 10
3365.1745082919
 20
4861.212509970882
 30
0.0
 11
3365.1745082919
 21
4226.586958812424
 31
0.0
  0
LINE
  5
220C
330
1F
100
AcDbEntity
  8
STR
100
AcDbLine
 10
1015.1745082919
 20
4227.836958812424
 30
0.0
 11
3315.174508291899
 21
4227.836958812424
 31
0.0
  0
LINE
  5
2210
330
1F
100
AcDbEntity
  8
STR
100
AcDbLine
 10
1105.527854830838
 20
1502.825149975202
 30
0.0
 11
1105.527854830838
 21
1503.450149975203
 31
0.0
  0
LINE
  5
2211
330
1F
100
AcDbEntity
  8
STR
100
AcDbLine
 10
1905.527854830838
 20
1502.825149975202
 30
0.0
 11
1905.527854830838
 21
1503.450149975203
 31
0.0
  0
LINE
  5
2212
330
1F
100
AcDbEntity
  8
STR
100
AcDbLine
 10
1155.527854830838
 20
1502.200149975203
 30
0.0
 11
1855.527854830838
 21
1502.200149975203
 31
0.0
  0
MTEXT
  5
2215
330
1F
100
AcDbEntity
  8
STR
100
AcDbMText
 10
1505.527854830838
 20
1562.200149975203
 30
0.0
 40
60.0
 41
0.0
 71
     5
 72
     1
  1
　
1001
ACAD
1000
MTEXTBEGIN
1070
    73
1070
     1
1070
    44
1040
1.0
1070
    74
1070
     0
1000
MTEXTEND
  0
LINE
  5
2216
330
1F
100
AcDbEntity
  8
STR
100
AcDbLine
 10
1319.141428033298
 20
5814.633724149079
 30
0.0
 11
1428.324069009038
 21
5705.45108317334
 31
0.0
  0
LINE
  5
2217
330
1F
100
AcDbEntity
  8
STR
100
AcDbLine
 10
1428.324069009038
 20
5705.45108317334
 30
0.0
 11
1582.731640652641
 21
5705.45108317334
 31
0.0
  0
LINE
  5
2218
330
1F
100
AcDbEntity
  8
STR
100
AcDbLine
 10
1582.731640652641
 20
5705.45108317334
 30
0.0
 11
1691.914281628379
 21
5814.633724149079
 31
0.0
  0
LINE
  5
2219
330
1F
100
AcDbEntity
  8
STR
100
AcDbLine
 10
1691.914281628379
 20
5814.633724149079
 30
0.0
 11
1691.914281628379
 21
5969.041295792683
 31
0.0
  0
LINE
  5
221A
330
1F
100
AcDbEntity
  8
STR
100
AcDbLine
 10
1691.914281628379
 20
5969.041295792683
 30
0.0
 11
1582.73164065264
 21
6078.22393676842
 31
0.0
  0
LINE
  5
221B
330
1F
100
AcDbEntity
  8
STR
100
AcDbLine
 10
1582.73164065264
 20
6078.22393676842
 30
0.0
 11
1428.324069009037
 21
6078.223936768423
 31
0.0
  0
LINE
  5
221C
330
1F
100
AcDbEntity
  8
STR
100
AcDbLine
 10
1428.324069009037
 20
6078.223936768423
 30
0.0
 11
1319.141428033299
 21
5969.041295792681
 31
0.0
  0
LINE
  5
221D
330
1F
100
AcDbEntity
  8
STR
100
AcDbLine
 10
1319.141428033299
 20
5969.041295792681
 30
0.0
 11
1319.141428033298
 21
5814.633724149079
 31
0.0
  0
LINE
  5
221E
330
1F
100
AcDbEntity
  8
STR
100
AcDbLine
 10
2991.152854830838
 20
3208.700149975203
 30
0.0
 11
3787.123596526749
 21
3208.700149975202
 31
0.0
  0
LINE
  5
221F
330
1F
100
AcDbEntity
  8
STR
100
AcDbLine
 10
3417.803389198207
 20
708.7001499752022
 30
0.0
 11
3787.123596526748
 21
708.7001499752022
 31
0.0
  0
LINE
  5
2220
330
1F
100
AcDbEntity
  8
STR
100
AcDbLine
 10
3785.873596526749
 20
3158.700149975202
 30
0.0
 11
3785.873596526748
 21
758.7001499752022
 31
0.0
  0
LINE
  5
2224
330
1F
100
AcDbEntity
  8
STR
100
AcDbLine
 10
3395.799508291899
 20
6891.837509970881
 30
0.0
 11
4105.037012116875
 21
6891.837509970881
 31
0.0
  0
LINE
  5
2225
330
1F
100
AcDbEntity
  8
STR
100
AcDbLine
 10
3395.799508291899
 20
4891.837509970882
 30
0.0
 11
4105.037012116874
 21
4891.837509970882
 31
0.0
  0
LINE
  5
2226
330
1F
100
AcDbEntity
  8
STR
100
AcDbLine
 10
4103.787012116875
 20
6841.837509970881
 30
0.0
 11
4103.787012116874
 21
4941.837509970882
 31
0.0
  0
LINE
  5
222A
330
1F
100
AcDbEntity
  8
STR
  6
BYBLOCK
 62
     0
100
AcDbLine
 10
1155.527854830838
 20
1488.802690475203
 30
0.0
 11
1105.527854830838
 21
1502.200149975203
 31
0.0
  0
LINE
  5
222B
330
1F
100
AcDbEntity
  8
STR
  6
BYBLOCK
 62
     0
100
AcDbLine
 10
1105.527854830838
 20
1502.200149975203
 30
0.0
 11
1155.527854830838
 21
1515.597609475203
 31
0.0
  0
LINE
  5
222C
330
1F
100
AcDbEntity
  8
STR
  6
BYBLOCK
 62
     0
100
AcDbLine
 10
1105.527854830838
 20
1502.200149975203
 30
0.0
 11
1155.527854830838
 21
1502.200149975203
 31
0.0
  0
LINE
  5
222D
330
1F
100
AcDbEntity
  8
STR
  6
BYBLOCK
 62
     0
100
AcDbLine
 10
1855.527854830838
 20
1515.597609475203
 30
0.0
 11
1905.527854830838
 21
1502.200149975203
 31
0.0
  0
LINE
  5
222E
330
1F
100
AcDbEntity
  8
STR
  6
BYBLOCK
 62
     0
100
AcDbLine
 10
1905.527854830838
 20
1502.200149975203
 30
0.0
 11
1855.527854830838
 21
1488.802690475203
 31
0.0
  0
LINE
  5
222F
330
1F
100
AcDbEntity
  8
STR
  6
BYBLOCK
 62
     0
100
AcDbLine
 10
1905.527854830838
 20
1502.200149975203
 30
0.0
 11
1855.527854830838
 21
1502.200149975203
 31
0.0
  0
LINE
  5
2230
330
1F
100
AcDbEntity
  8
STR
  6
BYBLOCK
 62
     0
100
AcDbLine
 10
1015.1745082919
 20
4214.439499312424
 30
0.0
 11
965.1745082919003
 21
4227.836958812424
 31
0.0
  0
LINE
  5
2231
330
1F
100
AcDbEntity
  8
STR
  6
BYBLOCK
 62
     0
100
AcDbLine
 10
965.1745082919003
 20
4227.836958812424
 30
0.0
 11
1015.1745082919
 21
4241.234418312424
 31
0.0
  0
LINE
  5
2232
330
1F
100
AcDbEntity
  8
STR
  6
BYBLOCK
 62
     0
100
AcDbLine
 10
965.1745082919003
 20
4227.836958812424
 30
0.0
 11
1015.1745082919
 21
4227.836958812424
 31
0.0
  0
TEXT
  5
2233
330
1F
100
AcDbEntity
  8
STR
100
AcDbText
 10
1641.746372806913
 20
4712.935241109373
 30
0.0
 40
60.0
  1
3000φ
 50
67.33608398494256
100
AcDbText
  0
LINE
  5
2234
330
1F
100
AcDbEntity
  8
STR
  6
BYBLOCK
 62
     0
100
AcDbLine
 10
1618.764784441069
 20
4545.273041550903
 30
0.0
 11
1587.135615826188
 21
4504.296369970776
 31
0.0
  0
LINE
  5
2235
330
1F
100
AcDbEntity
  8
STR
  6
BYBLOCK
 62
     0
100
AcDbLine
 10
1587.135615826188
 20
4504.296369970776
 30
0.0
 11
1594.038943789924
 21
4555.597792797821
 31
0.0
  0
LINE
  5
2236
330
1F
100
AcDbEntity
  8
STR
  6
BYBLOCK
 62
     0
100
AcDbLine
 10
1587.135615826188
 20
4504.296369970776
 30
0.0
 11
1606.401864115497
 21
4550.435417174361
 31
0.0
  0
TEXT
  5
2237
330
1F
100
AcDbEntity
  8
STR
100
AcDbText
 10
2065.1745082919
 20
4257.836958812424
 30
0.0
 40
60.0
  1
2400
100
AcDbText
  0
LINE
  5
2238
330
1F
100
AcDbEntity
  8
STR
  6
BYBLOCK
 62
     0
100
AcDbLine
 10
3799.271056026747
 20
758.7001499752022
 30
0.0
 11
3785.873596526748
 21
708.7001499752022
 31
0.0
  0
LINE
  5
2239
330
1F
100
AcDbEntity
  8
STR
  6
BYBLOCK
 62
     0
100
AcDbLine
 10
3785.873596526748
 20
708.7001499752022
 30
0.0
 11
3772.476137026748
 21
758.7001499752022
 31
0.0
  0
LINE
  5
223A
330
1F
100
AcDbEntity
  8
STR
  6
BYBLOCK
 62
     0
100
AcDbLine
 10
3785.873596526748
 20
708.7001499752022
 30
0.0
 11
3785.873596526748
 21
758.7001499752022
 31
0.0
  0
LINE
  5
223B
330
1F
100
AcDbEntity
  8
STR
  6
BYBLOCK
 62
     0
100
AcDbLine
 10
4011.979850043225
 20
758.7001499752021
 30
0.0
 11
3998.582390543225
 21
708.7001499752021
 31
0.0
  0
LINE
  5
223C
330
1F
100
AcDbEntity
  8
STR
  6
BYBLOCK
 62
     0
100
AcDbLine
 10
3998.582390543225
 20
708.7001499752021
 30
0.0
 11
3985.184931043225
 21
758.7001499752021
 31
0.0
  0
LINE
  5
223D
330
1F
100
AcDbEntity
  8
STR
  6
BYBLOCK
 62
     0
100
AcDbLine
 10
3998.582390543225
 20
708.7001499752021
 30
0.0
 11
3998.582390543225
 21
758.7001499752021
 31
0.0
  0
TEXT
  5
223E
330
1F
100
AcDbEntity
  8
STR
100
AcDbText
 10
3968.582390543225
 20
2023.700149975202
 30
0.0
 40
60.0
  1
MAX3000
 50
90.0
100
AcDbText
  0
TEXT
  5
223F
330
1F
100
AcDbEntity
  8
STR
100
AcDbText
 10
3755.873596526748
 20
1858.700149975203
 30
0.0
 40
60.0
  1
2500
 50
90.0
100
AcDbText
  0
LINE
  5
2240
330
1F
100
AcDbEntity
  8
STR
  6
BYBLOCK
 62
     0
100
AcDbLine
 10
3315.174508291899
 20
4241.234418312424
 30
0.0
 11
3365.1745082919
 21
4227.836958812424
 31
0.0
  0
LINE
  5
2241
330
1F
100
AcDbEntity
  8
STR
  6
BYBLOCK
 62
     0
100
AcDbLine
 10
3365.1745082919
 20
4227.836958812424
 30
0.0
 11
3315.174508291899
 21
4214.439499312424
 31
0.0
  0
LINE
  5
2242
330
1F
100
AcDbEntity
  8
STR
  6
BYBLOCK
 62
     0
100
AcDbLine
 10
3365.1745082919
 20
4227.836958812424
 30
0.0
 11
3315.174508291899
 21
4227.836958812424
 31
0.0
  0
LINE
  5
2243
330
1F
100
AcDbEntity
  8
STR
  6
BYBLOCK
 62
     0
100
AcDbLine
 10
3772.476137026748
 20
3158.700149975202
 30
0.0
 11
3785.873596526749
 21
3208.700149975202
 31
0.0
  0
LINE
  5
2244
330
1F
100
AcDbEntity
  8
STR
  6
BYBLOCK
 62
     0
100
AcDbLine
 10
3785.873596526749
 20
3208.700149975202
 30
0.0
 11
3799.271056026749
 21
3158.700149975202
 31
0.0
  0
LINE
  5
2245
330
1F
100
AcDbEntity
  8
STR
  6
BYBLOCK
 62
     0
100
AcDbLine
 10
3785.873596526749
 20
3208.700149975202
 30
0.0
 11
3785.873596526749
 21
3158.700149975202
 31
0.0
  0
LINE
  5
2246
330
1F
100
AcDbEntity
  8
STR
  6
BYBLOCK
 62
     0
100
AcDbLine
 10
3985.184931043226
 20
3658.700149975202
 30
0.0
 11
3998.582390543226
 21
3708.700149975202
 31
0.0
  0
LINE
  5
2247
330
1F
100
AcDbEntity
  8
STR
  6
BYBLOCK
 62
     0
100
AcDbLine
 10
3998.582390543226
 20
3708.700149975202
 30
0.0
 11
4011.979850043226
 21
3658.700149975202
 31
0.0
  0
LINE
  5
2248
330
1F
100
AcDbEntity
  8
STR
  6
BYBLOCK
 62
     0
100
AcDbLine
 10
3998.582390543226
 20
3708.700149975202
 30
0.0
 11
3998.582390543226
 21
3658.700149975202
 31
0.0
  0
TEXT
  5
2249
330
1F
100
AcDbEntity
  8
STR
100
AcDbText
 10
4073.787012116873
 20
5796.837509970883
 30
0.0
 40
60.0
  1
2000
 50
90.0
100
AcDbText
  0
LINE
  5
224A
330
1F
100
AcDbEntity
  8
STR
  6
BYBLOCK
 62
     0
100
AcDbLine
 10
2711.481344569793
 20
7231.662530605802
 30
0.0
 11
2743.110513184673
 21
7272.63920218593
 31
0.0
  0
LINE
  5
224B
330
1F
100
AcDbEntity
  8
STR
  6
BYBLOCK
 62
     0
100
AcDbLine
 10
2743.110513184673
 20
7272.63920218593
 30
0.0
 11
2736.207185220937
 21
7221.337779358885
 31
0.0
  0
LINE
  5
224C
330
1F
100
AcDbEntity
  8
STR
  6
BYBLOCK
 62
     0
100
AcDbLine
 10
2743.110513184673
 20
7272.63920218593
 30
0.0
 11
2723.844264895365
 21
7226.500154982343
 31
0.0
  0
LINE
  5
224D
330
1F
100
AcDbEntity
  8
STR
  6
BYBLOCK
 62
     0
100
AcDbLine
 10
4117.184471616874
 20
4941.837509970882
 30
0.0
 11
4103.787012116874
 21
4891.837509970882
 31
0.0
  0
LINE
  5
224E
330
1F
100
AcDbEntity
  8
STR
  6
BYBLOCK
 62
     0
100
AcDbLine
 10
4103.787012116874
 20
4891.837509970882
 30
0.0
 11
4090.389552616874
 21
4941.837509970882
 31
0.0
  0
LINE
  5
224F
330
1F
100
AcDbEntity
  8
STR
  6
BYBLOCK
 62
     0
100
AcDbLine
 10
4103.787012116874
 20
4891.837509970882
 30
0.0
 11
4103.787012116874
 21
4941.837509970882
 31
0.0
  0
LINE
  5
2250
330
1F
100
AcDbEntity
  8
STR
  6
BYBLOCK
 62
     0
100
AcDbLine
 10
4090.389552616875
 20
6841.837509970881
 30
0.0
 11
4103.787012116875
 21
6891.837509970881
 31
0.0
  0
LINE
  5
2251
330
1F
100
AcDbEntity
  8
STR
  6
BYBLOCK
 62
     0
100
AcDbLine
 10
4103.787012116875
 20
6891.837509970881
 30
0.0
 11
4117.184471616876
 21
6841.837509970881
 31
0.0
  0
LINE
  5
2252
330
1F
100
AcDbEntity
  8
STR
  6
BYBLOCK
 62
     0
100
AcDbLine
 10
4103.787012116875
 20
6891.837509970881
 30
0.0
 11
4103.787012116875
 21
6841.837509970881
 31
0.0
  0
VIEWPORT
  5
2157
102
{ACAD_XDICTIONARY
360
21B3
102
}
330
2150
100
AcDbEntity
 67
     1
  8
0
100
AcDbViewport
 10
99.11291408538819
 20
142.5680856704711
 30
0.0
 40
405.3284468049269
 41
314.1924854736328
 68
     1
 69
     1
1001
ACAD
1000
MVIEW
1002
{
1070
    16
1010
0.0
1020
0.0
1030
0.0
1010
0.0
1020
0.0
1030
1.0
1040
0.0
1040
314.1924854736328
1040
99.11291408538819
1040
142.5680856704711
1040
50.0
1040
0.0
1040
0.0
1070
     0
1070
  1000
1070
     1
1070
     1
1070
     0
1070
     0
1070
     0
1070
     0
1040
0.0
1040
0.0
1040
0.0
1040
10.0
1040
10.0
1040
10.0
1040
10.0
1070
     0
1002
{
1002
}
1002
}
  0
VIEWPORT
  5
2159
102
{ACAD_XDICTIONARY
360
21B5
102
}
330
2150
100
AcDbEntity
 67
     1
  8
STR
100
AcDbViewport
 10
103.4638295111959
 20
143.4655591164908
 30
0.0
 40
210.0548383428888
 41
300.47405360033
 68
     2
 69
     2
1001
ACAD
1000
MVIEW
1002
{
1070
    16
1010
0.0
1020
0.0
1030
0.0
1010
0.0
1020
0.0
1030
1.0
1040
0.0
1040
9014.221608009901
1040
2493.41880063878
1040
4152.669601178908
1040
50.0
1040
0.0
1040
0.0
1070
     0
1070
  1000
1070
     1
1070
     3
1070
     0
1070
     0
1070
     0
1070
     0
1040
0.0
1040
0.0
1040
0.0
1040
10.0
1040
10.0
1040
10.0
1040
10.0
1070
     0
1002
{
1002
}
1002
}
  0
ENDSEC
  0
SECTION
  2
OBJECTS
  0
DICTIONARY
  5
C
330
0
100
AcDbDictionary
  3
ACAD_COLOR
350
6B
  3
ACAD_GROUP
350
D
  3
ACAD_LAYOUT
350
1A
  3
ACAD_MATERIAL
350
6A
  3
ACAD_MLINESTYLE
350
17
  3
ACAD_PLOTSETTINGS
350
19
  3
ACAD_PLOTSTYLENAME
350
E
  3
ACDBHEADERROUNDTRIPXREC
350
2254
  3
ACDBVARIABLEDICTIONARY
350
5E
  0
DICTIONARY
  5
21BD
330
1F
100
AcDbDictionary
280
     1
  3
ACAD_LAYOUTSELFREF
360
2275
  0
DICTIONARY
  5
21BF
330
2150
100
AcDbDictionary
280
     1
  3
ACAD_LAYOUTSELFREF
360
2276
  0
DICTIONARY
  5
21B3
330
2157
100
AcDbDictionary
280
     1
  3
ACAD_XREC_ROUNDTRIP
360
21B4
  0
DICTIONARY
  5
21B5
330
2159
100
AcDbDictionary
280
     1
  3
ACAD_XREC_ROUNDTRIP
360
21B6
  0
DICTIONARY
  5
6B
102
{ACAD_REACTORS
330
C
102
}
330
C
100
AcDbDictionary
  0
DICTIONARY
  5
D
102
{ACAD_REACTORS
330
C
102
}
330
C
100
AcDbDictionary
  0
DICTIONARY
  5
1A
102
{ACAD_REACTORS
330
C
102
}
330
C
100
AcDbDictionary
  0
DICTIONARY
  5
6A
102
{ACAD_REACTORS
330
C
102
}
330
C
100
AcDbDictionary
  0
DICTIONARY
  5
17
102
{ACAD_REACTORS
330
C
102
}
330
C
100
AcDbDictionary
  3
STANDARD
350
18
  0
DICTIONARY
  5
19
102
{ACAD_REACTORS
330
C
102
}
330
C
100
AcDbDictionary
  0
ACDBDICTIONARYWDFLT
  5
E
102
{ACAD_REACTORS
330
C
102
}
330
C
100
AcDbDictionary
281
     1
  3
Normal
350
F
100
AcDbDictionaryWithDefault
340
F
  0
DICTIONARY
  5
2254
102
{ACAD_REACTORS
330
C
102
}
330
C
100
AcDbDictionary
  3
CEPSNTYPE
350
225E
  3
DIMSTYLEDATA
350
2262
  3
FINGERPRINTGUID
350
225F
  3
HYPERLINKBASE
350
2257
  3
INSUNITS
350
225D
  3
LAYOUTDICT
350
2259
  3
LWETCUNION
350
225C
  3
PLOTSETDICT
350
225A
  3
PLOTSTYLNAMDICT
350
225B
  3
PSVPSCALE
350
2261
  3
PUCSBASE
350
2265
  3
PUCSORGBACK
350
226B
  3
PUCSORGBOTTOM
350
2267
  3
PUCSORGFRONT
350
226A
  3
PUCSORGLEFT
350
2268
  3
PUCSORGRIGHT
350
2269
  3
PUCSORGTOP
350
2266
  3
PUCSORTHOREF
350
2263
  3
PUCSORTHOVIEW
350
2264
  3
STYLESHEET
350
2258
  3
TSTACKALIGN
350
2255
  3
TSTACKSIZE
350
2256
  3
UCSBASE
350
226E
  3
UCSORGBACK
350
2274
  3
UCSORGBOTTOM
350
2270
  3
UCSORGFRONT
350
2273
  3
UCSORGLEFT
350
2271
  3
UCSORGRIGHT
350
2272
  3
UCSORGTOP
350
226F
  3
UCSORTHOREF
350
226C
  3
UCSORTHOVIEW
350
226D
  3
VERSIONGUID
350
2260
  0
DICTIONARY
  5
5E
102
{ACAD_REACTORS
330
C
102
}
330
C
100
AcDbDictionary
  3
DIMASSOC
350
5F
  3
HIDETEXT
350
63
  3
PROJECTNAME
350
21B7
  0
XRECORD
  5
2275
102
{ACAD_REACTORS
330
21BD
102
}
330
21BD
100
AcDbXrecord
340
1F
  0
XRECORD
  5
2276
102
{ACAD_REACTORS
330
21BF
102
}
330
21BF
100
AcDbXrecord
340
2150
  0
XRECORD
  5
21B4
102
{ACAD_REACTORS
330
21B3
102
}
330
21B3
100
AcDbXrecord
102
SHADEPLOT
 70
     0
  0
XRECORD
  5
21B6
102
{ACAD_REACTORS
330
21B5
102
}
330
21B5
100
AcDbXrecord
102
SHADEPLOT
 70
     0
  0
MLINESTYLE
  5
18
102
{ACAD_REACTORS
330
17
102
}
330
17
100
AcDbMlineStyle
  2
STANDARD
 70
     0
  3

 62
   256
 51
90.0
 52
90.0
 71
     2
 49
0.5
 62
   256
  6
BYLAYER
 49
-0.5
 62
   256
  6
BYLAYER
  0
ACDBPLACEHOLDER
  5
F
102
{ACAD_REACTORS
330
E
102
}
330
E
100
AcDbPlaceHolder
280
     0
  0
XRECORD
  5
225E
102
{ACAD_REACTORS
330
2254
102
}
330
2254
100
AcDbXrecord
 90
        0
  0
XRECORD
  5
2262
102
{ACAD_REACTORS
330
2254
102
}
330
2254
100
AcDbXrecord
1000
DSTYLE
1002
{
1070
   278
 70
    44
1070
   289
 70
     2
1070
   341
340
100
1070
   342
340
FA
1002
}
  0
XRECORD
  5
225F
102
{ACAD_REACTORS
330
2254
102
}
330
2254
100
AcDbXrecord
  1
{FDEAD578-A652-11D2-9A35-0060089B3A3F}
  0
XRECORD
  5
2257
102
{ACAD_REACTORS
330
2254
102
}
330
2254
100
AcDbXrecord
  1

  0
XRECORD
  5
225D
102
{ACAD_REACTORS
330
2254
102
}
330
2254
100
AcDbXrecord
 90
        4
  0
XRECORD
  5
2259
102
{ACAD_REACTORS
330
2254
102
}
330
2254
100
AcDbXrecord
340
1A
  0
XRECORD
  5
225C
102
{ACAD_REACTORS
330
2254
102
}
330
2254
100
AcDbXrecord
 90
    10781
  0
XRECORD
  5
225A
102
{ACAD_REACTORS
330
2254
102
}
330
2254
100
AcDbXrecord
340
19
  0
XRECORD
  5
225B
102
{ACAD_REACTORS
330
2254
102
}
330
2254
100
AcDbXrecord
340
E
  0
XRECORD
  5
2261
102
{ACAD_REACTORS
330
2254
102
}
330
2254
100
AcDbXrecord
 40
0.0
  0
XRECORD
  5
2265
102
{ACAD_REACTORS
330
2254
102
}
330
2254
100
AcDbXrecord
340
0
  0
XRECORD
  5
226B
102
{ACAD_REACTORS
330
2254
102
}
330
2254
100
AcDbXrecord
 10
0.0
 20
0.0
 30
0.0
  0
XRECORD
  5
2267
102
{ACAD_REACTORS
330
2254
102
}
330
2254
100
AcDbXrecord
 10
0.0
 20
0.0
 30
0.0
  0
XRECORD
  5
226A
102
{ACAD_REACTORS
330
2254
102
}
330
2254
100
AcDbXrecord
 10
0.0
 20
0.0
 30
0.0
  0
XRECORD
  5
2268
102
{ACAD_REACTORS
330
2254
102
}
330
2254
100
AcDbXrecord
 10
0.0
 20
0.0
 30
0.0
  0
XRECORD
  5
2269
102
{ACAD_REACTORS
330
2254
102
}
330
2254
100
AcDbXrecord
 10
0.0
 20
0.0
 30
0.0
  0
XRECORD
  5
2266
102
{ACAD_REACTORS
330
2254
102
}
330
2254
100
AcDbXrecord
 10
0.0
 20
0.0
 30
0.0
  0
XRECORD
  5
2263
102
{ACAD_REACTORS
330
2254
102
}
330
2254
100
AcDbXrecord
340
0
  0
XRECORD
  5
2264
102
{ACAD_REACTORS
330
2254
102
}
330
2254
100
AcDbXrecord
 70
     0
  0
XRECORD
  5
2258
102
{ACAD_REACTORS
330
2254
102
}
330
2254
100
AcDbXrecord
  1

  0
XRECORD
  5
2255
102
{ACAD_REACTORS
330
2254
102
}
330
2254
100
AcDbXrecord
 90
        1
  0
XRECORD
  5
2256
102
{ACAD_REACTORS
330
2254
102
}
330
2254
100
AcDbXrecord
 90
       70
  0
XRECORD
  5
226E
102
{ACAD_REACTORS
330
2254
102
}
330
2254
100
AcDbXrecord
340
0
  0
XRECORD
  5
2274
102
{ACAD_REACTORS
330
2254
102
}
330
2254
100
AcDbXrecord
 10
0.0
 20
0.0
 30
0.0
  0
XRECORD
  5
2270
102
{ACAD_REACTORS
330
2254
102
}
330
2254
100
AcDbXrecord
 10
0.0
 20
0.0
 30
0.0
  0
XRECORD
  5
2273
102
{ACAD_REACTORS
330
2254
102
}
330
2254
100
AcDbXrecord
 10
0.0
 20
0.0
 30
0.0
  0
XRECORD
  5
2271
102
{ACAD_REACTORS
330
2254
102
}
330
2254
100
AcDbXrecord
 10
0.0
 20
0.0
 30
0.0
  0
XRECORD
  5
2272
102
{ACAD_REACTORS
330
2254
102
}
330
2254
100
AcDbXrecord
 10
0.0
 20
0.0
 30
0.0
  0
XRECORD
  5
226F
102
{ACAD_REACTORS
330
2254
102
}
330
2254
100
AcDbXrecord
 10
0.0
 20
0.0
 30
0.0
  0
XRECORD
  5
226C
102
{ACAD_REACTORS
330
2254
102
}
330
2254
100
AcDbXrecord
340
0
  0
XRECORD
  5
226D
102
{ACAD_REACTORS
330
2254
102
}
330
2254
100
AcDbXrecord
 70
     0
  0
XRECORD
  5
2260
102
{ACAD_REACTORS
330
2254
102
}
330
2254
100
AcDbXrecord
  1
{2BF9B776-76F4-4AE5-BC4E-C806635EF237}
  0
DICTIONARYVAR
  5
5F
102
{ACAD_REACTORS
330
5E
102
}
330
5E
100
DictionaryVariables
280
     0
  1
2
  0
DICTIONARYVAR
  5
63
102
{ACAD_REACTORS
330
5E
102
}
330
5E
100
DictionaryVariables
280
     0
  1
1
  0
DICTIONARYVAR
  5
21B7
102
{ACAD_REACTORS
330
5E
102
}
330
5E
100
DictionaryVariables
280
     0
  1

  0
ENDSEC
  0
EOF
