  0
SECTION
  2
HEADER
  9
$ACADVER
  1
AC1014
  9
$ACADMAINTVER
 70
     9
  9
$DWGCODEPAGE
  3
ANSI_932
  9
$INSBASE
 10
0.0
 20
0.0
 30
0.0
  9
$EXTMIN
 10
364.151013042021
 20
244.8120189886676
 30
-0.0015258207003583
  9
$EXTMAX
 10
4775.466930325454
 20
2411.178595166628
 30
0.0000000349246037
  9
$LIMMIN
 10
0.0
 20
0.0
  9
$LIMMAX
 10
5000.0
 20
3000.0
  9
$ORTHOMODE
 70
     0
  9
$REGENMODE
 70
     1
  9
$FILLMODE
 70
     1
  9
$QTEXTMODE
 70
     0
  9
$MIRRTEXT
 70
     0
  9
$DRAGMODE
 70
     2
  9
$LTSCALE
 40
1.0
  9
$OSMODE
 70
    47
  9
$ATTMODE
 70
     1
  9
$TEXTSIZE
 40
2.5
  9
$TRACEWID
 40
1.0
  9
$TEXTSTYLE
  7
STANDARD
  9
$CLAYER
  8
STR
  9
$CELTYPE
  6
BYLAYER
  9
$CECOLOR
 62
   256
  9
$CELTSCALE
 40
1.0
  9
$DELOBJ
 70
     1
  9
$DISPSILH
 70
     0
  9
$DIMSCALE
 40
1.0
  9
$DIMASZ
 40
50.0
  9
$DIMEXO
 40
0.625
  9
$DIMDLI
 40
3.75
  9
$DIMRND
 40
0.0
  9
$DIMDLE
 40
0.0
  9
$DIMEXE
 40
1.25
  9
$DIMTP
 40
0.0
  9
$DIMTM
 40
0.0
  9
$DIMTXT
 40
60.0
  9
$DIMCEN
 40
2.5
  9
$DIMTSZ
 40
0.0
  9
$DIMTOL
 70
     0
  9
$DIMLIM
 70
     0
  9
$DIMTIH
 70
     0
  9
$DIMTOH
 70
     0
  9
$DIMSE1
 70
     0
  9
$DIMSE2
 70
     0
  9
$DIMTAD
 70
     1
  9
$DIMZIN
 70
     8
  9
$DIMBLK
  1
OPEN30
  9
$DIMASO
 70
     1
  9
$DIMSHO
 70
     1
  9
$DIMPOST
  1

  9
$DIMAPOST
  1

  9
$DIMALT
 70
     0
  9
$DIMALTD
 70
     3
  9
$DIMALTF
 40
0.03937007874016
  9
$DIMLFAC
 40
1.0
  9
$DIMTOFL
 70
     1
  9
$DIMTVP
 40
0.0
  9
$DIMTIX
 70
     0
  9
$DIMSOXD
 70
     0
  9
$DIMSAH
 70
     0
  9
$DIMBLK1
  1

  9
$DIMBLK2
  1

  9
$DIMSTYLE
  2
ISO-25-BRGK
  9
$DIMCLRD
 70
     0
  9
$DIMCLRE
 70
     0
  9
$DIMCLRT
 70
     0
  9
$DIMTFAC
 40
1.0
  9
$DIMGAP
 40
30.0
  9
$DIMJUST
 70
     0
  9
$DIMSD1
 70
     0
  9
$DIMSD2
 70
     0
  9
$DIMTOLJ
 70
     0
  9
$DIMTZIN
 70
     8
  9
$DIMALTZ
 70
     0
  9
$DIMALTTZ
 70
     0
  9
$DIMFIT
 70
     3
  9
$DIMUPT
 70
     0
  9
$DIMUNIT
 70
     2
  9
$DIMDEC
 70
     2
  9
$DIMTDEC
 70
     2
  9
$DIMALTU
 70
     2
  9
$DIMALTTD
 70
     3
  9
$DIMTXSTY
  7
STANDARD
  9
$DIMAUNIT
 70
     0
  9
$LUNITS
 70
     2
  9
$LUPREC
 70
     4
  9
$SKETCHINC
 40
1.0
  9
$FILLETRAD
 40
0.0
  9
$AUNITS
 70
     0
  9
$AUPREC
 70
     0
  9
$MENU
  1
.
  9
$ELEVATION
 40
0.0
  9
$PELEVATION
 40
0.0
  9
$THICKNESS
 40
0.0
  9
$LIMCHECK
 70
     0
  9
$BLIPMODE
 70
     0
  9
$CHAMFERA
 40
0.0
  9
$CHAMFERB
 40
0.0
  9
$CHAMFERC
 40
0.0
  9
$CHAMFERD
 40
0.0
  9
$SKPOLY
 70
     0
  9
$TDCREATE
 40
2453462.778056458
  9
$TDUPDATE
 40
2453465.556075115
  9
$TDINDWG
 40
0.0835069560
  9
$TDUSRTIMER
 40
0.0835065856
  9
$USRTIMER
 70
     1
  9
$ANGBASE
 50
0.0
  9
$ANGDIR
 70
     0
  9
$PDMODE
 70
     0
  9
$PDSIZE
 40
0.0
  9
$PLINEWID
 40
0.0
  9
$COORDS
 70
     1
  9
$SPLFRAME
 70
     0
  9
$SPLINETYPE
 70
     6
  9
$SPLINESEGS
 70
     8
  9
$ATTDIA
 70
     0
  9
$ATTREQ
 70
     1
  9
$HANDLING
 70
 22529
  9
$HANDSEED
  5
9F6
  9
$SURFTAB1
 70
     6
  9
$SURFTAB2
 70
     6
  9
$SURFTYPE
 70
     6
  9
$SURFU
 70
     6
  9
$SURFV
 70
     6
  9
$UCSNAME
  2

  9
$UCSORG
 10
0.0
 20
0.0
 30
0.0
  9
$UCSXDIR
 10
1.0
 20
0.0
 30
0.0
  9
$UCSYDIR
 10
0.0
 20
1.0
 30
0.0
  9
$PUCSNAME
  2

  9
$PUCSORG
 10
0.0
 20
0.0
 30
0.0
  9
$PUCSXDIR
 10
1.0
 20
0.0
 30
0.0
  9
$PUCSYDIR
 10
0.0
 20
1.0
 30
0.0
  9
$USERI1
 70
     0
  9
$USERI2
 70
     0
  9
$USERI3
 70
     0
  9
$USERI4
 70
     0
  9
$USERI5
 70
     0
  9
$USERR1
 40
0.0
  9
$USERR2
 40
0.0
  9
$USERR3
 40
0.0
  9
$USERR4
 40
0.0
  9
$USERR5
 40
0.0
  9
$WORLDVIEW
 70
     1
  9
$SHADEDGE
 70
     3
  9
$SHADEDIF
 70
    70
  9
$TILEMODE
 70
     1
  9
$MAXACTVP
 70
    48
  9
$PINSBASE
 10
0.0
 20
0.0
 30
0.0
  9
$PLIMCHECK
 70
     0
  9
$PEXTMIN
 10
0.0
 20
0.0
 30
0.0
  9
$PEXTMAX
 10
0.0
 20
0.0
 30
0.0
  9
$PLIMMIN
 10
0.0
 20
0.0
  9
$PLIMMAX
 10
12.0
 20
9.0
  9
$UNITMODE
 70
     0
  9
$VISRETAIN
 70
     1
  9
$PLINEGEN
 70
     0
  9
$PSLTSCALE
 70
     1
  9
$TREEDEPTH
 70
  3020
  9
$PICKSTYLE
 70
     1
  9
$CMLSTYLE
  2
STANDARD
  9
$CMLJUST
 70
     0
  9
$CMLSCALE
 40
20.0
  9
$PROXYGRAPHICS
 70
     1
  9
$MEASUREMENT
 70
     1
  0
ENDSEC
  0
SECTION
  2
CLASSES
  0
CLASS
  1
ACDBDICTIONARYWDFLT
  2
AcDbDictionaryWithDefault
  3
AutoCAD 2000
 90
        0
280
     0
281
     0
  0
CLASS
  1
ACDBPLACEHOLDER
  2
AcDbPlaceHolder
  3
AutoCAD 2000
 90
        0
280
     0
281
     0
  0
CLASS
  1
LAYOUT
  2
AcDbLayout
  3
AutoCAD 2000
 90
        0
280
     0
281
     0
  0
CLASS
  1
DICTIONARYVAR
  2
AcDbDictionaryVar
  3
AutoCAD 2000
 90
        0
280
     0
281
     0
  0
CLASS
  1
DIMASSOC
  2
AcDbDimAssoc
  3
"AcDbDimAssoc|Product Desc:     AcDim ARX App For Dimension|Company:          Autodesk, Inc.|WEB Address:      www.autodesk.com"
 90
        0
280
     0
281
     0
  0
CLASS
  1
LONG_TRANSACTION
  2
AcDbLongTransaction
  3
AutoCAD 2000
 90
        0
280
     0
281
     0
  0
CLASS
  1
LWPOLYLINE
  2
AcDbPolyline
  3
AutoCAD 2000
 90
        0
280
     0
281
     1
  0
CLASS
  1
HATCH
  2
AcDbHatch
  3
AutoCAD 2000
 90
        0
280
     0
281
     1
  0
CLASS
  1
XRECORD
  2
AcDbXrecord
  3
AutoCAD 2000
 90
        0
280
     0
281
     0
  0
CLASS
  1
LONG_TRANSACTION
  2
AcDbLongTransaction
  3
AutoCAD 2000
 90
        0
280
     0
281
     0
  0
CLASS
  1
LWPOLYLINE
  2
AcDbPolyline
  3
AutoCAD 2000
 90
        0
280
     0
281
     1
  0
CLASS
  1
HATCH
  2
AcDbHatch
  3
AutoCAD 2000
 90
        0
280
     0
281
     1
  0
CLASS
  1
XRECORD
  2
AcDbXrecord
  3
AutoCAD 2000
 90
        0
280
     0
281
     0
  0
CLASS
  1
LONG_TRANSACTION
  2
AcDbLongTransaction
  3
AutoCAD 2000
 90
        0
280
     0
281
     0
  0
CLASS
  1
LWPOLYLINE
  2
AcDbPolyline
  3
AutoCAD 2000
 90
        0
280
     0
281
     1
  0
CLASS
  1
HATCH
  2
AcDbHatch
  3
AutoCAD 2000
 90
        0
280
     0
281
     1
  0
CLASS
  1
XRECORD
  2
AcDbXrecord
  3
AutoCAD 2000
 90
        0
280
     0
281
     0
  0
ENDSEC
  0
SECTION
  2
TABLES
  0
TABLE
  2
VPORT
  5
8
330
0
100
AcDbSymbolTable
 70
     2
  0
VPORT
  5
9D2
330
8
100
AcDbSymbolTableRecord
100
AcDbViewportTableRecord
  2
*ACTIVE
 70
     0
 10
0.0
 20
0.0
 11
1.0
 21
1.0
 12
2500.0
 22
1500.0
 13
0.0
 23
0.0
 14
10.0
 24
10.0
 15
10.0
 25
10.0
 16
0.0
 26
0.0
 36
1.0
 17
0.0
 27
0.0
 37
0.0
 40
3175.168447055375
 41
1.580912863070539
 42
50.0
 43
0.0
 44
0.0
 50
0.0
 51
0.0
 71
     0
 72
  1000
 73
     1
 74
     3
 75
     0
 76
     0
 77
     0
 78
     0
  0
ENDTAB
  0
TABLE
  2
LTYPE
  5
5
330
0
100
AcDbSymbolTable
 70
     3
  0
LTYPE
  5
14
330
5
100
AcDbSymbolTableRecord
100
AcDbLinetypeTableRecord
  2
BYBLOCK
 70
     0
  3

 72
    65
 73
     0
 40
0.0
  0
LTYPE
  5
15
330
5
100
AcDbSymbolTableRecord
100
AcDbLinetypeTableRecord
  2
BYLAYER
 70
     0
  3

 72
    65
 73
     0
 40
0.0
  0
LTYPE
  5
16
330
5
100
AcDbSymbolTableRecord
100
AcDbLinetypeTableRecord
  2
CONTINUOUS
 70
     0
  3
Solid line
 72
    65
 73
     0
 40
0.0
  0
LTYPE
  5
122
330
5
100
AcDbSymbolTableRecord
100
AcDbLinetypeTableRecord
  2
CENTER
 70
     0
  3
Center ____ _ ____ _ ____ _ ____ _ ____ _ ____
 72
    65
 73
     4
 40
50.8
 49
31.75
 74
     0
 49
-6.349999999999999
 74
     0
 49
6.349999999999999
 74
     0
 49
-6.349999999999999
 74
     0
  0
LTYPE
  5
123
330
5
100
AcDbSymbolTableRecord
100
AcDbLinetypeTableRecord
  2
HIDDEN
 70
     0
  3
Hidden __ __ __ __ __ __ __ __ __ __ __ __ __ _
 72
    65
 73
     2
 40
9.524999999999998
 49
6.349999999999999
 74
     0
 49
-3.174999999999999
 74
     0
  0
ENDTAB
  0
TABLE
  2
LAYER
  5
2
330
0
100
AcDbSymbolTable
 70
     4
  0
LAYER
  5
10
330
2
100
AcDbSymbolTableRecord
100
AcDbLayerTableRecord
  2
0
 70
     0
 62
     7
  6
CONTINUOUS
  0
LAYER
  5
124
330
2
100
AcDbSymbolTableRecord
100
AcDbLayerTableRecord
  2
STR
 70
     0
 62
     7
  6
CONTINUOUS
  0
LAYER
  5
125
330
2
100
AcDbSymbolTableRecord
100
AcDbLayerTableRecord
  2
BMK
 70
     0
 62
     1
  6
CENTER
  0
LAYER
  5
126
330
2
100
AcDbSymbolTableRecord
100
AcDbLayerTableRecord
  2
DEFPOINTS
 70
     0
 62
     7
  6
CONTINUOUS
  0
ENDTAB
  0
TABLE
  2
STYLE
  5
3
330
0
100
AcDbSymbolTable
 70
     1
  0
STYLE
  5
11
330
3
100
AcDbSymbolTableRecord
100
AcDbTextStyleTableRecord
  2
STANDARD
 70
     0
 40
0.0
 41
1.0
 50
0.0
 71
     0
 42
2.5
  3
txt.shx
  4
bigfont.shx
  0
ENDTAB
  0
TABLE
  2
VIEW
  5
6
330
0
100
AcDbSymbolTable
 70
     0
  0
ENDTAB
  0
TABLE
  2
UCS
  5
7
330
0
100
AcDbSymbolTable
 70
     0
  0
ENDTAB
  0
TABLE
  2
APPID
  5
9
330
0
100
AcDbSymbolTable
 70
     1
  0
APPID
  5
12
330
9
100
AcDbSymbolTableRecord
100
AcDbRegAppTableRecord
  2
ACAD
 70
     0
  0
ENDTAB
  0
TABLE
  2
DIMSTYLE
  5
A
330
0
100
AcDbSymbolTable
 70
     1
  0
DIMSTYLE
105
127
330
A
100
AcDbSymbolTableRecord
100
AcDbDimStyleTableRecord
  2
ISO-25-BRGK
 70
     0
  3

  4

  5
OPEN30
  6

  7

 40
1.0
 41
50.0
 42
0.625
 43
3.75
 44
1.25
 45
0.0
 46
0.0
 47
0.0
 48
0.0
140
60.0
141
2.5
142
0.0
143
0.03937007874016
144
1.0
145
0.0
146
1.0
147
30.0
 71
     0
 72
     0
 73
     0
 74
     0
 75
     0
 76
     0
 77
     1
 78
     8
170
     0
171
     3
172
     1
173
     0
174
     0
175
     0
176
     0
177
     0
178
     0
270
     2
271
     2
272
     2
273
     2
274
     3
340
11
275
     0
280
     0
281
     0
282
     0
283
     0
284
     8
285
     0
286
     0
287
     3
288
     0
  0
ENDTAB
  0
TABLE
  2
BLOCK_RECORD
  5
1
330
0
100
AcDbSymbolTable
 70
    15
  0
BLOCK_RECORD
  5
1F
102
{ACAD_XDICTIONARY
360
86D
102
}
330
1
100
AcDbSymbolTableRecord
100
AcDbBlockTableRecord
  2
*MODEL_SPACE
  0
BLOCK_RECORD
  5
854
102
{ACAD_XDICTIONARY
360
86F
102
}
330
1
100
AcDbSymbolTableRecord
100
AcDbBlockTableRecord
  2
*PAPER_SPACE
  0
BLOCK_RECORD
  5
9F
330
1
100
AcDbSymbolTableRecord
100
AcDbBlockTableRecord
  2
_OPEN30
  0
BLOCK_RECORD
  5
ED
330
1
100
AcDbSymbolTableRecord
100
AcDbBlockTableRecord
  2
_NONE
  0
BLOCK_RECORD
  5
313
330
1
100
AcDbSymbolTableRecord
100
AcDbBlockTableRecord
  2
*D2
  0
BLOCK_RECORD
  5
31F
330
1
100
AcDbSymbolTableRecord
100
AcDbBlockTableRecord
  2
*D3
  0
BLOCK_RECORD
  5
32B
330
1
100
AcDbSymbolTableRecord
100
AcDbBlockTableRecord
  2
*D4
  0
BLOCK_RECORD
  5
337
330
1
100
AcDbSymbolTableRecord
100
AcDbBlockTableRecord
  2
*D5
  0
BLOCK_RECORD
  5
345
330
1
100
AcDbSymbolTableRecord
100
AcDbBlockTableRecord
  2
*D6
  0
BLOCK_RECORD
  5
35A
330
1
100
AcDbSymbolTableRecord
100
AcDbBlockTableRecord
  2
*D7
  0
BLOCK_RECORD
  5
366
330
1
100
AcDbSymbolTableRecord
100
AcDbBlockTableRecord
  2
*D8
  0
BLOCK_RECORD
  5
372
330
1
100
AcDbSymbolTableRecord
100
AcDbBlockTableRecord
  2
*D9
  0
BLOCK_RECORD
  5
37E
330
1
100
AcDbSymbolTableRecord
100
AcDbBlockTableRecord
  2
*D10
  0
BLOCK_RECORD
  5
38A
330
1
100
AcDbSymbolTableRecord
100
AcDbBlockTableRecord
  2
*D11
  0
BLOCK_RECORD
  5
396
330
1
100
AcDbSymbolTableRecord
100
AcDbBlockTableRecord
  2
*D12
  0
BLOCK_RECORD
  5
3AB
330
1
100
AcDbSymbolTableRecord
100
AcDbBlockTableRecord
  2
*D13
  0
BLOCK_RECORD
  5
5CC
330
1
100
AcDbSymbolTableRecord
100
AcDbBlockTableRecord
  2
*D14
  0
ENDTAB
  0
ENDSEC
  0
SECTION
  2
BLOCKS
  0
BLOCK
  5
20
330
1F
100
AcDbEntity
  8
0
100
AcDbBlockBegin
  2
*MODEL_SPACE
 70
     0
 10
0.0
 20
0.0
 30
0.0
  3
*MODEL_SPACE
  1

  0
ENDBLK
  5
21
330
1F
100
AcDbEntity
  8
0
100
AcDbBlockEnd
  0
BLOCK
  5
856
330
854
100
AcDbEntity
 67
     1
  8
0
100
AcDbBlockBegin
  2
*PAPER_SPACE
 70
     0
 10
0.0
 20
0.0
 30
0.0
  3
*PAPER_SPACE
  1

  0
ENDBLK
  5
857
330
854
100
AcDbEntity
 67
     1
  8
0
100
AcDbBlockEnd
  0
BLOCK
  5
A0
330
9F
100
AcDbEntity
  8
0
100
AcDbBlockBegin
  2
_OPEN30
 70
     0
 10
0.0
 20
0.0
 30
0.0
  3
_OPEN30
  1

  0
LINE
  5
A1
330
9F
100
AcDbEntity
  8
0
  6
BYBLOCK
 62
     0
100
AcDbLine
 10
-1.0
 20
0.26794919
 30
0.0
 11
0.0
 21
0.0
 31
0.0
  0
LINE
  5
A2
330
9F
100
AcDbEntity
  8
0
  6
BYBLOCK
 62
     0
100
AcDbLine
 10
0.0
 20
0.0
 30
0.0
 11
-1.0
 21
-0.26794919
 31
0.0
  0
LINE
  5
A3
330
9F
100
AcDbEntity
  8
0
  6
BYBLOCK
 62
     0
100
AcDbLine
 10
0.0
 20
0.0
 30
0.0
 11
-1.0
 21
0.0
 31
0.0
  0
ENDBLK
  5
A4
330
9F
100
AcDbEntity
  8
0
100
AcDbBlockEnd
  0
BLOCK
  5
EE
330
ED
100
AcDbEntity
  8
0
100
AcDbBlockBegin
  2
_NONE
 70
     0
 10
0.0
 20
0.0
 30
0.0
  3
_NONE
  1

  0
ENDBLK
  5
EF
330
ED
100
AcDbEntity
  8
0
100
AcDbBlockEnd
  0
BLOCK
  5
31D
330
313
100
AcDbEntity
  8
0
100
AcDbBlockBegin
  2
*D2
 70
     1
 10
0.0
 20
0.0
 30
0.0
  3
*D2
  1

  0
LINE
  5
809
330
313
100
AcDbEntity
  8
STR
 62
     0
100
AcDbLine
 10
2031.716960442935
 20
2057.044985447013
 30
0.0
 11
2031.716960442935
 21
2322.354201841646
 31
0.0
  0
LINE
  5
80A
330
313
100
AcDbEntity
  8
STR
 62
     0
100
AcDbLine
 10
2781.716960442935
 20
2057.044985447013
 30
0.0
 11
2781.716960442935
 21
2322.354201841646
 31
0.0
  0
LINE
  5
80B
330
313
100
AcDbEntity
  8
STR
 62
     0
100
AcDbLine
 10
2081.716960442935
 20
2321.104201841646
 30
0.0
 11
2731.716960442935
 21
2321.104201841646
 31
0.0
  0
INSERT
  5
80C
330
313
100
AcDbEntity
  8
STR
 62
     0
100
AcDbBlockReference
  2
_OPEN30
 10
2031.716960442935
 20
2321.104201841646
 30
0.0
 41
50.0
 42
50.0
 43
50.0
 50
180.0
  0
INSERT
  5
80D
330
313
100
AcDbEntity
  8
STR
 62
     0
100
AcDbBlockReference
  2
_OPEN30
 10
2781.716960442935
 20
2321.104201841646
 30
0.0
 41
50.0
 42
50.0
 43
50.0
  0
MTEXT
  5
80E
330
313
100
AcDbEntity
  8
STR
 62
     0
100
AcDbMText
 10
2406.716960442935
 20
2381.104201841646
 30
0.0
 40
60.0
 41
0.0
 71
     5
 72
     1
  1
750
1001
ACAD
1000
MTEXTBEGIN
1070
    73
1070
     1
1070
    44
1040
1.0
1070
    74
1070
     0
1000
MTEXTEND
  0
POINT
  5
80F
330
313
100
AcDbEntity
  8
DEFPOINTS
 62
     0
100
AcDbPoint
 10
2031.716960442935
 20
2056.419985447013
 30
0.0
  0
POINT
  5
810
330
313
100
AcDbEntity
  8
DEFPOINTS
 62
     0
100
AcDbPoint
 10
2781.716960442935
 20
2056.419985447013
 30
0.0
  0
POINT
  5
811
330
313
100
AcDbEntity
  8
DEFPOINTS
 62
     0
100
AcDbPoint
 10
2781.716960442935
 20
2321.104201841646
 30
0.0
  0
ENDBLK
  5
31E
330
313
100
AcDbEntity
  8
0
100
AcDbBlockEnd
  0
BLOCK
  5
329
330
31F
100
AcDbEntity
  8
0
100
AcDbBlockBegin
  2
*D3
 70
     1
 10
0.0
 20
0.0
 30
0.0
  3
*D3
  1

  0
LINE
  5
7CA
330
31F
100
AcDbEntity
  8
STR
 62
     0
100
AcDbLine
 10
2989.041985639513
 20
720.3074163529493
 30
0.0
 11
2956.321722851834
 21
720.3074163529493
 31
0.0
  0
LINE
  5
7CB
330
31F
100
AcDbEntity
  8
STR
 62
     0
100
AcDbLine
 10
2989.041985639513
 20
1375.307416352949
 30
0.0
 11
2956.321722851834
 21
1375.307416352949
 31
0.0
  0
LINE
  5
7CC
330
31F
100
AcDbEntity
  8
STR
 62
     0
100
AcDbLine
 10
2957.571722851834
 20
770.3074163529493
 30
0.0
 11
2957.571722851834
 21
1325.307416352949
 31
0.0
  0
INSERT
  5
7CD
330
31F
100
AcDbEntity
  8
STR
 62
     0
100
AcDbBlockReference
  2
_OPEN30
 10
2957.571722851834
 20
720.3074163529493
 30
0.0
 41
50.0
 42
50.0
 43
50.0
 50
270.0
  0
INSERT
  5
7CE
330
31F
100
AcDbEntity
  8
STR
 62
     0
100
AcDbBlockReference
  2
_OPEN30
 10
2957.571722851834
 20
1375.307416352949
 30
0.0
 41
50.0
 42
50.0
 43
50.0
 50
90.0
  0
MTEXT
  5
7CF
330
31F
100
AcDbEntity
  8
STR
 62
     0
100
AcDbMText
 10
2897.571722851834
 20
1047.807416352949
 30
0.0
 40
60.0
 41
0.0
 71
     5
 72
     1
  1
655
 11
0.0000000000000001
 21
1.0
 31
0.0
1001
ACAD
1000
MTEXTBEGIN
1070
    73
1070
     1
1070
    44
1040
1.0
1070
    74
1070
     0
1000
MTEXTEND
  0
POINT
  5
7D0
330
31F
100
AcDbEntity
  8
DEFPOINTS
 62
     0
100
AcDbPoint
 10
2989.666985639514
 20
720.3074163529493
 30
0.0
  0
POINT
  5
7D1
330
31F
100
AcDbEntity
  8
DEFPOINTS
 62
     0
100
AcDbPoint
 10
2989.666985639514
 20
1375.307416352949
 30
0.0
  0
POINT
  5
7D2
330
31F
100
AcDbEntity
  8
DEFPOINTS
 62
     0
100
AcDbPoint
 10
2957.571722851834
 20
1375.307416352949
 30
0.0
  0
ENDBLK
  5
32A
330
31F
100
AcDbEntity
  8
0
100
AcDbBlockEnd
  0
BLOCK
  5
335
330
32B
100
AcDbEntity
  8
0
100
AcDbBlockBegin
  2
*D4
 70
     1
 10
0.0
 20
0.0
 30
0.0
  3
*D4
  1

  0
LINE
  5
90D
330
32B
100
AcDbEntity
  8
STR
 62
     0
100
AcDbLine
 10
801.4836185934454
 20
975.3074163529495
 30
0.0
 11
800.8586185934454
 21
975.3074163529495
 31
0.0
  0
LINE
  5
90E
330
32B
100
AcDbEntity
  8
STR
 62
     0
100
AcDbLine
 10
607.3419604429354
 20
1375.307416352949
 30
0.0
 11
803.3586185934456
 21
1375.307416352949
 31
0.0
  0
LINE
  5
90F
330
32B
100
AcDbEntity
  8
STR
 62
     0
100
AcDbLine
 10
802.1086185934455
 20
1025.307416352949
 30
0.0
 11
802.1086185934455
 21
1325.307416352949
 31
0.0
  0
MTEXT
  5
910
330
32B
100
AcDbEntity
  8
STR
 62
     0
100
AcDbMText
 10
742.1086185934456
 20
1239.83927388879
 30
0.0
 40
60.0
 41
0.0
 71
     5
 72
     1
  1
400
 11
0.0000000000000001
 21
1.0
 31
0.0
1001
ACAD
1000
MTEXTBEGIN
1070
    73
1070
     1
1070
    44
1040
1.0
1070
    74
1070
     0
1000
MTEXTEND
  0
INSERT
  5
911
330
32B
100
AcDbEntity
  8
STR
 62
     0
100
AcDbBlockReference
  2
_OPEN30
 10
802.1086185934455
 20
975.3074163529495
 30
0.0
 41
50.0
 42
50.0
 43
50.0
 50
270.0
  0
INSERT
  5
912
330
32B
100
AcDbEntity
  8
STR
 62
     0
100
AcDbBlockReference
  2
_OPEN30
 10
802.1086185934455
 20
1375.307416352949
 30
0.0
 41
50.0
 42
50.0
 43
50.0
 50
90.0
  0
POINT
  5
913
330
32B
100
AcDbEntity
  8
DEFPOINTS
 62
     0
100
AcDbPoint
 10
802.1086185934455
 20
975.3074163529495
 30
0.0
  0
POINT
  5
914
330
32B
100
AcDbEntity
  8
DEFPOINTS
 62
     0
100
AcDbPoint
 10
606.7169604429355
 20
1375.307416352949
 30
0.0
  0
POINT
  5
915
330
32B
100
AcDbEntity
  8
DEFPOINTS
 62
     0
100
AcDbPoint
 10
802.1086185934455
 20
1375.307416352949
 30
0.0
  0
ENDBLK
  5
336
330
32B
100
AcDbEntity
  8
0
100
AcDbBlockEnd
  0
BLOCK
  5
343
330
337
100
AcDbEntity
  8
0
100
AcDbBlockBegin
  2
*D5
 70
     1
 10
0.0
 20
0.0
 30
0.0
  3
*D5
  1

  0
LINE
  5
916
330
337
100
AcDbEntity
  8
STR
 62
     0
100
AcDbLine
 10
706.0919604429357
 20
950.3074163529493
 30
0.0
 11
651.7118766686062
 21
950.3074163529493
 31
0.0
  0
LINE
  5
917
330
337
100
AcDbEntity
  8
STR
 62
     0
100
AcDbLine
 10
838.0193177735819
 20
975.3074163529488
 30
0.0
 11
651.7118766686062
 21
975.307416352949
 31
0.0
  0
LINE
  5
918
330
337
100
AcDbEntity
  8
STR
 62
     0
100
AcDbLine
 10
652.9618766686062
 20
900.3074163529493
 30
0.0
 11
652.9618766686062
 21
850.3074163529493
 31
0.0
  0
LINE
  5
919
330
337
100
AcDbEntity
  8
STR
 62
     0
100
AcDbLine
 10
652.9618766686062
 20
1025.307416352948
 30
0.0
 11
652.9618766686062
 21
1075.307416352948
 31
0.0
  0
MTEXT
  5
91A
330
337
100
AcDbEntity
  8
STR
 62
     0
100
AcDbMText
 10
592.961876668606
 20
1000.307416352949
 30
0.0
 40
60.0
 41
0.0
 71
     5
 72
     1
  1
25
 11
0.0000000000000001
 21
1.0
 31
0.0
1001
ACAD
1000
MTEXTBEGIN
1070
    73
1070
     1
1070
    44
1040
1.0
1070
    74
1070
     0
1000
MTEXTEND
  0
LINE
  5
91B
330
337
100
AcDbEntity
  8
STR
 62
     0
100
AcDbLine
 10
652.9618766686062
 20
950.3074163529493
 30
0.0
 11
652.9618766686062
 21
975.307416352949
 31
0.0
  0
INSERT
  5
91C
330
337
100
AcDbEntity
  8
STR
 62
     0
100
AcDbBlockReference
  2
_OPEN30
 10
652.9618766686062
 20
950.3074163529493
 30
0.0
 41
50.0
 42
50.0
 43
50.0
 50
90.0
  0
INSERT
  5
91D
330
337
100
AcDbEntity
  8
STR
 62
     0
100
AcDbBlockReference
  2
_OPEN30
 10
652.9618766686062
 20
975.307416352949
 30
0.0
 41
50.0
 42
50.0
 43
50.0
 50
270.0
  0
POINT
  5
91E
330
337
100
AcDbEntity
  8
DEFPOINTS
 62
     0
100
AcDbPoint
 10
706.7169604429357
 20
950.3074163529493
 30
0.0
  0
POINT
  5
91F
330
337
100
AcDbEntity
  8
DEFPOINTS
 62
     0
100
AcDbPoint
 10
838.6443177735818
 20
975.3074163529488
 30
0.0
  0
POINT
  5
920
330
337
100
AcDbEntity
  8
DEFPOINTS
 62
     0
100
AcDbPoint
 10
652.9618766686062
 20
975.307416352949
 30
0.0
  0
ENDBLK
  5
344
330
337
100
AcDbEntity
  8
0
100
AcDbBlockEnd
  0
BLOCK
  5
34F
330
345
100
AcDbEntity
  8
0
100
AcDbBlockBegin
  2
*D6
 70
     1
 10
0.0
 20
0.0
 30
0.0
  3
*D6
  1

  0
LINE
  5
812
330
345
100
AcDbEntity
  8
STR
 62
     0
100
AcDbLine
 10
706.0919604429354
 20
720.3074163529495
 30
0.0
 11
651.7118766686061
 21
720.3074163529495
 31
0.0
  0
LINE
  5
813
330
345
100
AcDbEntity
  8
STR
 62
     0
100
AcDbLine
 10
706.0919604429357
 20
950.3074163529493
 30
0.0
 11
651.7118766686062
 21
950.3074163529493
 31
0.0
  0
LINE
  5
814
330
345
100
AcDbEntity
  8
STR
 62
     0
100
AcDbLine
 10
652.9618766686062
 20
770.3074163529495
 30
0.0
 11
652.9618766686062
 21
900.3074163529493
 31
0.0
  0
INSERT
  5
815
330
345
100
AcDbEntity
  8
STR
 62
     0
100
AcDbBlockReference
  2
_OPEN30
 10
652.9618766686061
 20
720.3074163529495
 30
0.0
 41
50.0
 42
50.0
 43
50.0
 50
270.0
  0
INSERT
  5
816
330
345
100
AcDbEntity
  8
STR
 62
     0
100
AcDbBlockReference
  2
_OPEN30
 10
652.9618766686062
 20
950.3074163529493
 30
0.0
 41
50.0
 42
50.0
 43
50.0
 50
90.0
  0
MTEXT
  5
817
330
345
100
AcDbEntity
  8
STR
 62
     0
100
AcDbMText
 10
592.961876668606
 20
835.3074163529495
 30
0.0
 40
60.0
 41
0.0
 71
     5
 72
     1
  1
230
 11
0.0000000000000001
 21
1.0
 31
0.0
1001
ACAD
1000
MTEXTBEGIN
1070
    73
1070
     1
1070
    44
1040
1.0
1070
    74
1070
     0
1000
MTEXTEND
  0
POINT
  5
818
330
345
100
AcDbEntity
  8
DEFPOINTS
 62
     0
100
AcDbPoint
 10
706.7169604429355
 20
720.3074163529495
 30
0.0
  0
POINT
  5
819
330
345
100
AcDbEntity
  8
DEFPOINTS
 62
     0
100
AcDbPoint
 10
706.7169604429357
 20
950.3074163529493
 30
0.0
  0
POINT
  5
81A
330
345
100
AcDbEntity
  8
DEFPOINTS
 62
     0
100
AcDbPoint
 10
652.9618766686062
 20
950.3074163529493
 30
0.0
  0
ENDBLK
  5
350
330
345
100
AcDbEntity
  8
0
100
AcDbBlockEnd
  0
BLOCK
  5
364
330
35A
100
AcDbEntity
  8
0
100
AcDbBlockBegin
  2
*D7
 70
     1
 10
0.0
 20
0.0
 30
0.0
  3
*D7
  1

  0
LINE
  5
800
330
35A
100
AcDbEntity
  8
STR
 62
     0
100
AcDbLine
 10
1224.785169919239
 20
1625.307416352949
 30
0.0
 11
1224.160169919239
 21
1625.307416352949
 31
0.0
  0
LINE
  5
801
330
35A
100
AcDbEntity
  8
STR
 62
     0
100
AcDbLine
 10
1224.785169919239
 20
1125.307416352949
 30
0.0
 11
1224.160169919239
 21
1125.307416352949
 31
0.0
  0
LINE
  5
802
330
35A
100
AcDbEntity
  8
STR
 62
     0
100
AcDbLine
 10
1225.410169919239
 20
1575.307416352949
 30
0.0
 11
1225.410169919239
 21
1175.307416352949
 31
0.0
  0
INSERT
  5
803
330
35A
100
AcDbEntity
  8
STR
 62
     0
100
AcDbBlockReference
  2
_OPEN30
 10
1225.410169919239
 20
1625.307416352949
 30
0.0
 41
50.0
 42
50.0
 43
50.0
 50
90.0
  0
INSERT
  5
804
330
35A
100
AcDbEntity
  8
STR
 62
     0
100
AcDbBlockReference
  2
_OPEN30
 10
1225.410169919239
 20
1125.307416352949
 30
0.0
 41
50.0
 42
50.0
 43
50.0
 50
270.0
  0
MTEXT
  5
805
330
35A
100
AcDbEntity
  8
STR
 62
     0
100
AcDbMText
 10
1165.410169919238
 20
1375.307416352949
 30
0.0
 40
60.0
 41
0.0
 71
     5
 72
     1
  1
　
 11
0.0000000000000001
 21
1.0
 31
0.0
1001
ACAD
1000
MTEXTBEGIN
1070
    73
1070
     1
1070
    44
1040
1.0
1070
    74
1070
     0
1000
MTEXTEND
  0
POINT
  5
806
330
35A
100
AcDbEntity
  8
DEFPOINTS
 62
     0
100
AcDbPoint
 10
1225.410169919239
 20
1625.307416352949
 30
0.0
  0
POINT
  5
807
330
35A
100
AcDbEntity
  8
DEFPOINTS
 62
     0
100
AcDbPoint
 10
1225.410169919239
 20
1125.307416352949
 30
0.0
  0
POINT
  5
808
330
35A
100
AcDbEntity
  8
DEFPOINTS
 62
     0
100
AcDbPoint
 10
1225.410169919239
 20
1125.307416352949
 30
0.0
  0
ENDBLK
  5
365
330
35A
100
AcDbEntity
  8
0
100
AcDbBlockEnd
  0
BLOCK
  5
370
330
366
100
AcDbEntity
  8
0
100
AcDbBlockBegin
  2
*D8
 70
     1
 10
0.0
 20
0.0
 30
0.0
  3
*D8
  1

  0
LINE
  5
7F7
330
366
100
AcDbEntity
  8
STR
 62
     0
100
AcDbLine
 10
3385.286318829708
 20
627.8736488695403
 30
0.0
 11
3385.286318829708
 21
435.1347958447552
 31
0.0
  0
LINE
  5
7F8
330
366
100
AcDbEntity
  8
STR
 62
     0
100
AcDbLine
 10
4285.286318829707
 20
627.8736488695403
 30
0.0
 11
4285.286318829707
 21
435.1347958447552
 31
0.0
  0
LINE
  5
7F9
330
366
100
AcDbEntity
  8
STR
 62
     0
100
AcDbLine
 10
3435.286318829708
 20
436.3847958447552
 30
0.0
 11
4235.286318829707
 21
436.3847958447552
 31
0.0
  0
INSERT
  5
7FA
330
366
100
AcDbEntity
  8
STR
 62
     0
100
AcDbBlockReference
  2
_OPEN30
 10
3385.286318829708
 20
436.3847958447552
 30
0.0
 41
50.0
 42
50.0
 43
50.0
 50
180.0
  0
INSERT
  5
7FB
330
366
100
AcDbEntity
  8
STR
 62
     0
100
AcDbBlockReference
  2
_OPEN30
 10
4285.286318829707
 20
436.3847958447552
 30
0.0
 41
50.0
 42
50.0
 43
50.0
  0
MTEXT
  5
7FC
330
366
100
AcDbEntity
  8
STR
 62
     0
100
AcDbMText
 10
3835.286318829707
 20
496.3847958447551
 30
0.0
 40
60.0
 41
0.0
 71
     5
 72
     1
  1
900
1001
ACAD
1000
MTEXTBEGIN
1070
    73
1070
     1
1070
    44
1040
1.0
1070
    74
1070
     0
1000
MTEXTEND
  0
POINT
  5
7FD
330
366
100
AcDbEntity
  8
DEFPOINTS
 62
     0
100
AcDbPoint
 10
3385.286318829708
 20
628.4986488695404
 30
0.0
  0
POINT
  5
7FE
330
366
100
AcDbEntity
  8
DEFPOINTS
 62
     0
100
AcDbPoint
 10
4285.286318829707
 20
628.4986488695404
 30
0.0
  0
POINT
  5
7FF
330
366
100
AcDbEntity
  8
DEFPOINTS
 62
     0
100
AcDbPoint
 10
4285.286318829707
 20
436.3847958447552
 30
0.0
  0
ENDBLK
  5
371
330
366
100
AcDbEntity
  8
0
100
AcDbBlockEnd
  0
BLOCK
  5
37C
330
372
100
AcDbEntity
  8
0
100
AcDbBlockBegin
  2
*D9
 70
     1
 10
0.0
 20
0.0
 30
0.0
  3
*D9
  1

  0
LINE
  5
7EE
330
372
100
AcDbEntity
  8
STR
 62
     0
100
AcDbLine
 10
3335.286318829707
 20
627.8736488695403
 30
0.0
 11
3335.286318829707
 21
257.0547223836704
 31
0.0
  0
LINE
  5
7EF
330
372
100
AcDbEntity
  8
STR
 62
     0
100
AcDbLine
 10
4335.286318829708
 20
627.8736488695403
 30
0.0
 11
4335.286318829708
 21
257.0547223836704
 31
0.0
  0
LINE
  5
7F0
330
372
100
AcDbEntity
  8
STR
 62
     0
100
AcDbLine
 10
3385.286318829708
 20
258.3047223836704
 30
0.0
 11
4285.286318829708
 21
258.3047223836704
 31
0.0
  0
INSERT
  5
7F1
330
372
100
AcDbEntity
  8
STR
 62
     0
100
AcDbBlockReference
  2
_OPEN30
 10
3335.286318829707
 20
258.3047223836704
 30
0.0
 41
50.0
 42
50.0
 43
50.0
 50
180.0
  0
INSERT
  5
7F2
330
372
100
AcDbEntity
  8
STR
 62
     0
100
AcDbBlockReference
  2
_OPEN30
 10
4335.286318829708
 20
258.3047223836704
 30
0.0
 41
50.0
 42
50.0
 43
50.0
  0
MTEXT
  5
7F3
330
372
100
AcDbEntity
  8
STR
 62
     0
100
AcDbMText
 10
3835.286318829707
 20
318.3047223836704
 30
0.0
 40
60.0
 41
0.0
 71
     5
 72
     1
  1
1000
1001
ACAD
1000
MTEXTBEGIN
1070
    73
1070
     1
1070
    44
1040
1.0
1070
    74
1070
     0
1000
MTEXTEND
  0
POINT
  5
7F4
330
372
100
AcDbEntity
  8
DEFPOINTS
 62
     0
100
AcDbPoint
 10
3335.286318829707
 20
628.4986488695404
 30
0.0
  0
POINT
  5
7F5
330
372
100
AcDbEntity
  8
DEFPOINTS
 62
     0
100
AcDbPoint
 10
4335.286318829708
 20
628.4986488695404
 30
0.0
  0
POINT
  5
7F6
330
372
100
AcDbEntity
  8
DEFPOINTS
 62
     0
100
AcDbPoint
 10
4335.286318829708
 20
258.3047223836704
 30
0.0
  0
ENDBLK
  5
37D
330
372
100
AcDbEntity
  8
0
100
AcDbBlockEnd
  0
BLOCK
  5
388
330
37E
100
AcDbEntity
  8
0
100
AcDbBlockBegin
  2
*D10
 70
     1
 10
0.0
 20
0.0
 30
0.0
  3
*D10
  1

  0
LINE
  5
7E5
330
37E
100
AcDbEntity
  8
STR
 62
     0
100
AcDbLine
 10
3360.286318829707
 20
2074.835033016332
 30
0.0
 11
3360.286318829707
 21
2312.055658260018
 31
0.0
  0
LINE
  5
7E6
330
37E
100
AcDbEntity
  8
STR
 62
     0
100
AcDbLine
 10
4310.286318829708
 20
2074.835033016332
 30
0.0
 11
4310.286318829708
 21
2312.055658260018
 31
0.0
  0
LINE
  5
7E7
330
37E
100
AcDbEntity
  8
STR
 62
     0
100
AcDbLine
 10
3410.286318829708
 20
2310.805658260018
 30
0.0
 11
4260.286318829708
 21
2310.805658260018
 31
0.0
  0
INSERT
  5
7E8
330
37E
100
AcDbEntity
  8
STR
 62
     0
100
AcDbBlockReference
  2
_OPEN30
 10
3360.286318829707
 20
2310.805658260018
 30
0.0
 41
50.0
 42
50.0
 43
50.0
 50
180.0
  0
INSERT
  5
7E9
330
37E
100
AcDbEntity
  8
STR
 62
     0
100
AcDbBlockReference
  2
_OPEN30
 10
4310.286318829708
 20
2310.805658260018
 30
0.0
 41
50.0
 42
50.0
 43
50.0
  0
MTEXT
  5
7EA
330
37E
100
AcDbEntity
  8
STR
 62
     0
100
AcDbMText
 10
3835.286318829707
 20
2370.805658260018
 30
0.0
 40
60.0
 41
0.0
 71
     5
 72
     1
  1
950
1001
ACAD
1000
MTEXTBEGIN
1070
    73
1070
     1
1070
    44
1040
1.0
1070
    74
1070
     0
1000
MTEXTEND
  0
POINT
  5
7EB
330
37E
100
AcDbEntity
  8
DEFPOINTS
 62
     0
100
AcDbPoint
 10
3360.286318829707
 20
2074.210033016332
 30
0.0
  0
POINT
  5
7EC
330
37E
100
AcDbEntity
  8
DEFPOINTS
 62
     0
100
AcDbPoint
 10
4310.286318829708
 20
2074.210033016332
 30
0.0
  0
POINT
  5
7ED
330
37E
100
AcDbEntity
  8
DEFPOINTS
 62
     0
100
AcDbPoint
 10
4310.286318829708
 20
2310.805658260018
 30
0.0
  0
ENDBLK
  5
389
330
37E
100
AcDbEntity
  8
0
100
AcDbBlockEnd
  0
BLOCK
  5
394
330
38A
100
AcDbEntity
  8
0
100
AcDbBlockBegin
  2
*D11
 70
     1
 10
0.0
 20
0.0
 30
0.0
  3
*D11
  1

  0
LINE
  5
7DC
330
38A
100
AcDbEntity
  8
STR
 62
     0
100
AcDbLine
 10
731.7169604429355
 20
694.6824163529493
 30
0.0
 11
731.7169604429355
 21
478.1331023086279
 31
0.0
  0
LINE
  5
7DD
330
38A
100
AcDbEntity
  8
STR
 62
     0
100
AcDbLine
 10
2781.716960442935
 20
694.6824163529493
 30
0.0
 11
2781.716960442935
 21
478.1331023086279
 31
0.0
  0
LINE
  5
7DE
330
38A
100
AcDbEntity
  8
STR
 62
     0
100
AcDbLine
 10
781.7169604429355
 20
479.3831023086279
 30
0.0
 11
2731.716960442935
 21
479.3831023086279
 31
0.0
  0
INSERT
  5
7DF
330
38A
100
AcDbEntity
  8
STR
 62
     0
100
AcDbBlockReference
  2
_OPEN30
 10
731.7169604429355
 20
479.3831023086279
 30
0.0
 41
50.0
 42
50.0
 43
50.0
 50
180.0
  0
INSERT
  5
7E0
330
38A
100
AcDbEntity
  8
STR
 62
     0
100
AcDbBlockReference
  2
_OPEN30
 10
2781.716960442935
 20
479.3831023086279
 30
0.0
 41
50.0
 42
50.0
 43
50.0
  0
MTEXT
  5
7E1
330
38A
100
AcDbEntity
  8
STR
 62
     0
100
AcDbMText
 10
1756.716960442935
 20
539.3831023086279
 30
0.0
 40
60.0
 41
0.0
 71
     5
 72
     1
  1
2050
1001
ACAD
1000
MTEXTBEGIN
1070
    73
1070
     1
1070
    44
1040
1.0
1070
    74
1070
     0
1000
MTEXTEND
  0
POINT
  5
7E2
330
38A
100
AcDbEntity
  8
DEFPOINTS
 62
     0
100
AcDbPoint
 10
731.7169604429355
 20
695.3074163529493
 30
0.0
  0
POINT
  5
7E3
330
38A
100
AcDbEntity
  8
DEFPOINTS
 62
     0
100
AcDbPoint
 10
2781.716960442935
 20
695.3074163529493
 30
0.0
  0
POINT
  5
7E4
330
38A
100
AcDbEntity
  8
DEFPOINTS
 62
     0
100
AcDbPoint
 10
2781.716960442935
 20
479.3831023086279
 30
0.0
  0
ENDBLK
  5
395
330
38A
100
AcDbEntity
  8
0
100
AcDbBlockEnd
  0
BLOCK
  5
3A0
330
396
100
AcDbEntity
  8
0
100
AcDbBlockBegin
  2
*D12
 70
     1
 10
0.0
 20
0.0
 30
0.0
  3
*D12
  1

  0
LINE
  5
7D3
330
396
100
AcDbEntity
  8
STR
 62
     0
100
AcDbLine
 10
2181.716960442936
 20
2056.419985447013
 30
0.0
 11
2181.716960442936
 21
2159.464478992106
 31
0.0
  0
LINE
  5
7D4
330
396
100
AcDbEntity
  8
STR
 62
     0
100
AcDbLine
 10
2465.716960442935
 20
2056.419985447013
 30
0.0
 11
2465.716960442935
 21
2159.464478992106
 31
0.0
  0
LINE
  5
7D5
330
396
100
AcDbEntity
  8
STR
 62
     0
100
AcDbLine
 10
2231.716960442935
 20
2158.214478992106
 30
0.0
 11
2415.716960442935
 21
2158.214478992106
 31
0.0
  0
INSERT
  5
7D6
330
396
100
AcDbEntity
  8
STR
 62
     0
100
AcDbBlockReference
  2
_OPEN30
 10
2181.716960442936
 20
2158.214478992106
 30
0.0
 41
50.0
 42
50.0
 43
50.0
 50
180.0
  0
INSERT
  5
7D7
330
396
100
AcDbEntity
  8
STR
 62
     0
100
AcDbBlockReference
  2
_OPEN30
 10
2465.716960442935
 20
2158.214478992106
 30
0.0
 41
50.0
 42
50.0
 43
50.0
  0
MTEXT
  5
7D8
330
396
100
AcDbEntity
  8
STR
 62
     0
100
AcDbMText
 10
2323.716960442935
 20
2218.214478992106
 30
0.0
 40
60.0
 41
0.0
 71
     5
 72
     1
  1
284
1001
ACAD
1000
MTEXTBEGIN
1070
    73
1070
     1
1070
    44
1040
1.0
1070
    74
1070
     0
1000
MTEXTEND
  0
POINT
  5
7D9
330
396
100
AcDbEntity
  8
DEFPOINTS
 62
     0
100
AcDbPoint
 10
2181.716960442936
 20
2055.794985447013
 30
0.0
  0
POINT
  5
7DA
330
396
100
AcDbEntity
  8
DEFPOINTS
 62
     0
100
AcDbPoint
 10
2465.716960442935
 20
2055.794985447013
 30
0.0
  0
POINT
  5
7DB
330
396
100
AcDbEntity
  8
DEFPOINTS
 62
     0
100
AcDbPoint
 10
2465.716960442935
 20
2158.214478992106
 30
0.0
  0
ENDBLK
  5
3A1
330
396
100
AcDbEntity
  8
0
100
AcDbBlockEnd
  0
BLOCK
  5
3B5
330
3AB
100
AcDbEntity
  8
0
100
AcDbBlockBegin
  2
*D13
 70
     1
 10
0.0
 20
0.0
 30
0.0
  3
*D13
  1

  0
LINE
  5
7C1
330
3AB
100
AcDbEntity
  8
STR
 62
     0
100
AcDbLine
 10
2807.966960442935
 20
2025.307416352949
 30
0.0
 11
3129.785989782408
 21
2025.307416352949
 31
0.0
  0
LINE
  5
7C2
330
3AB
100
AcDbEntity
  8
STR
 62
     0
100
AcDbLine
 10
2807.341960442935
 20
720.3074163529493
 30
0.0
 11
3129.785989782408
 21
720.3074163529492
 31
0.0
  0
LINE
  5
7C3
330
3AB
100
AcDbEntity
  8
STR
 62
     0
100
AcDbLine
 10
3128.535989782408
 20
1975.307416352949
 30
0.0
 11
3128.535989782408
 21
770.3074163529492
 31
0.0
  0
INSERT
  5
7C4
330
3AB
100
AcDbEntity
  8
STR
 62
     0
100
AcDbBlockReference
  2
_OPEN30
 10
3128.535989782408
 20
2025.307416352949
 30
0.0
 41
50.0
 42
50.0
 43
50.0
 50
90.0
  0
INSERT
  5
7C5
330
3AB
100
AcDbEntity
  8
STR
 62
     0
100
AcDbBlockReference
  2
_OPEN30
 10
3128.535989782408
 20
720.3074163529492
 30
0.0
 41
50.0
 42
50.0
 43
50.0
 50
270.0
  0
MTEXT
  5
7C6
330
3AB
100
AcDbEntity
  8
STR
 62
     0
100
AcDbMText
 10
3068.535989782408
 20
1372.80741635295
 30
0.0
 40
60.0
 41
0.0
 71
     5
 72
     1
  1
1305
 11
0.0000000000000001
 21
1.0
 31
0.0
1001
ACAD
1000
MTEXTBEGIN
1070
    73
1070
     1
1070
    44
1040
1.0
1070
    74
1070
     0
1000
MTEXTEND
  0
POINT
  5
7C7
330
3AB
100
AcDbEntity
  8
DEFPOINTS
 62
     0
100
AcDbPoint
 10
2807.341960442935
 20
2025.307416352949
 30
0.0
  0
POINT
  5
7C8
330
3AB
100
AcDbEntity
  8
DEFPOINTS
 62
     0
100
AcDbPoint
 10
2806.716960442935
 20
720.3074163529493
 30
0.0
  0
POINT
  5
7C9
330
3AB
100
AcDbEntity
  8
DEFPOINTS
 62
     0
100
AcDbPoint
 10
3128.535989782408
 20
720.3074163529492
 30
0.0
  0
ENDBLK
  5
3B6
330
3AB
100
AcDbEntity
  8
0
100
AcDbBlockEnd
  0
BLOCK
  5
5D8
330
5CC
100
AcDbEntity
  8
0
100
AcDbBlockBegin
  2
*D14
 70
     1
 10
0.0
 20
0.0
 30
0.0
  3
*D14
  1

  0
LINE
  5
7B6
330
5CC
100
AcDbEntity
  8
STR
 62
     0
100
AcDbLine
 10
4335.286318829707
 20
1237.182416352949
 30
0.0
 11
4335.286318829707
 21
1123.747311168028
 31
0.0
  0
LINE
  5
7B7
330
5CC
100
AcDbEntity
  8
STR
 62
     0
100
AcDbLine
 10
4485.286318829706
 20
1321.124795217617
 30
0.0
 11
4485.286318829706
 21
1123.747311168028
 31
0.0
  0
LINE
  5
7B8
330
5CC
100
AcDbEntity
  8
STR
 62
     0
100
AcDbLine
 10
4285.286318829707
 20
1124.997311168028
 30
0.0
 11
4235.286318829706
 21
1124.997311168028
 31
0.0
  0
LINE
  5
7B9
330
5CC
100
AcDbEntity
  8
STR
 62
     0
100
AcDbLine
 10
4535.286318829707
 20
1124.997311168028
 30
0.0
 11
4775.286318829706
 21
1124.997311168028
 31
0.0
  0
LINE
  5
7BA
330
5CC
100
AcDbEntity
  8
STR
 62
     0
100
AcDbLine
 10
4335.286318829707
 20
1124.997311168028
 30
0.0
 11
4485.286318829706
 21
1124.997311168028
 31
0.0
  0
INSERT
  5
7BB
330
5CC
100
AcDbEntity
  8
STR
 62
     0
100
AcDbBlockReference
  2
_OPEN30
 10
4335.286318829707
 20
1124.997311168028
 30
0.0
 41
50.0
 42
50.0
 43
50.0
  0
INSERT
  5
7BC
330
5CC
100
AcDbEntity
  8
STR
 62
     0
100
AcDbBlockReference
  2
_OPEN30
 10
4485.286318829706
 20
1124.997311168028
 30
0.0
 41
50.0
 42
50.0
 43
50.0
 50
180.0
  0
MTEXT
  5
7BD
330
5CC
100
AcDbEntity
  8
STR
 62
     0
100
AcDbMText
 10
4680.286318829707
 20
1184.997311168028
 30
0.0
 40
60.0
 41
0.0
 71
     5
 72
     1
  1
150
1001
ACAD
1000
MTEXTBEGIN
1070
    73
1070
     1
1070
    44
1040
1.0
1070
    74
1070
     0
1000
MTEXTEND
  0
POINT
  5
7BE
330
5CC
100
AcDbEntity
  8
DEFPOINTS
 62
     0
100
AcDbPoint
 10
4335.286318829707
 20
1237.807416352948
 30
0.0
  0
POINT
  5
7BF
330
5CC
100
AcDbEntity
  8
DEFPOINTS
 62
     0
100
AcDbPoint
 10
4485.286318829706
 20
1321.749795217617
 30
0.0
  0
POINT
  5
7C0
330
5CC
100
AcDbEntity
  8
DEFPOINTS
 62
     0
100
AcDbPoint
 10
4485.286318829706
 20
1124.997311168028
 30
0.0
  0
ENDBLK
  5
5D9
330
5CC
100
AcDbEntity
  8
0
100
AcDbBlockEnd
  0
ENDSEC
  0
SECTION
  2
ENTITIES
  0
LINE
  5
220
330
1F
100
AcDbEntity
  8
STR
100
AcDbLine
 10
2465.716960442935
 20
1475.307416352949
 30
0.0
 11
2610.116042737029
 21
1475.307416352949
 31
0.0
  0
LINE
  5
221
330
1F
100
AcDbEntity
  8
STR
100
AcDbLine
 10
2465.716960442935
 20
1275.307416352949
 30
0.0
 11
2610.11604273703
 21
1275.307416352949
 31
0.0
  0
LINE
  5
222
330
1F
100
AcDbEntity
  8
STR
100
AcDbLine
 10
2589.034915027226
 20
1838.089140431685
 30
0.0
 11
3073.746661664313
 21
1838.089140431685
 31
0.0
1001
ACAD
1000
DSTYLE
1002
{
1070
   147
1040
30.0
1070
    77
1070
     0
1002
}
  0
LINE
  5
223
330
1F
100
AcDbEntity
  8
STR
100
AcDbLine
 10
2360.52793556766
 20
1408.998805615436
 30
0.0
 11
2589.034915027226
 21
1838.089140431685
 31
0.0
1001
ACAD
1000
DSTYLE
1002
{
1070
   147
1040
30.0
1070
    77
1070
     0
1002
}
  0
LINE
  5
224
330
1F
100
AcDbEntity
  8
STR
100
AcDbLine
 10
509.8129222831203
 20
2011.727761719134
 30
0.0
 11
980.791370715705
 21
2011.727761719134
 31
0.0
1001
ACAD
1000
DSTYLE
1002
{
1070
     5
1000
NONE
1070
    77
1070
     0
1070
   147
1040
0.625
1002
}
  0
LINE
  5
225
330
1F
100
AcDbEntity
  8
STR
100
AcDbLine
 10
584.3659797311271
 20
1475.307416352949
 30
0.0
 11
509.8129222831203
 21
2011.727761719134
 31
0.0
1001
ACAD
1000
DSTYLE
1002
{
1070
     5
1000
NONE
1070
    77
1070
     0
1070
   147
1040
0.625
1002
}
  0
LINE
  5
226
330
1F
100
AcDbEntity
  8
STR
100
AcDbLine
 10
1084.113374852967
 20
1870.04064435438
 30
0.0
 11
1864.49801798105
 21
1870.04064435438
 31
0.0
1001
ACAD
1000
DSTYLE
1002
{
1070
     5
1000
NONE
1070
    77
1070
     0
1070
   147
1040
0.625
1002
}
  0
LINE
  5
227
330
1F
100
AcDbEntity
  8
STR
100
AcDbLine
 10
1225.410169919239
 20
1625.307416352949
 30
0.0
 11
1084.113374852967
 21
1870.04064435438
 31
0.0
1001
ACAD
1000
DSTYLE
1002
{
1070
     5
1000
NONE
1070
    77
1070
     0
1070
   147
1040
0.625
1002
}
  0
LINE
  5
231
330
1F
100
AcDbEntity
  8
STR
100
AcDbLine
 10
3335.286318829707
 20
975.3074163529493
 30
0.0
 11
4335.286318829707
 21
975.3074163529488
 31
0.0
  0
LINE
  5
232
330
1F
100
AcDbEntity
  8
STR
100
AcDbLine
 10
2006.716960442934
 20
975.3074163529493
 30
0.0
 11
2656.716960442935
 21
975.3074163529495
 31
0.0
  0
LINE
  5
236
330
1F
100
AcDbEntity
  8
STR
100
AcDbLine
 10
2283.584926086969
 20
1435.307416352949
 30
0.0
 11
2211.716960442937
 21
1363.439450708916
 31
0.0
  0
LINE
  5
237
330
1F
100
AcDbEntity
  8
STR
100
AcDbLine
 10
2354.295604205625
 20
1435.307416352949
 30
0.0
 11
2234.295604205625
 21
1315.307416352949
 31
0.0
  0
LINE
  5
238
330
1F
100
AcDbEntity
  8
STR
100
AcDbLine
 10
2425.006282324279
 20
1435.307416352948
 30
0.0
 11
2305.00628232428
 21
1315.307416352949
 31
0.0
  0
LINE
  5
239
330
1F
100
AcDbEntity
  8
STR
100
AcDbLine
 10
2435.716960442935
 20
1375.307416352949
 30
0.0
 11
2375.716960442934
 21
1315.307416352949
 31
0.0
  0
TEXT
  5
250
330
1F
100
AcDbEntity
  8
STR
100
AcDbText
 10
2595.467416631819
 20
1864.618536507638
 30
0.0
 40
60.0
  1
合同切換装置
100
AcDbText
  0
TEXT
  5
251
330
1F
100
AcDbEntity
  8
STR
100
AcDbText
 10
526.9198362785484
 20
2044.866839766139
 30
0.0
 40
60.0
  1
制御削進ﾍｯﾄﾞ
100
AcDbText
  0
TEXT
  5
252
330
1F
100
AcDbEntity
  8
STR
100
AcDbText
 10
1123.155808718757
 20
1902.691839197234
 30
0.0
 40
60.0
  1
MAXφ500×800l
100
AcDbText
  0
LINE
  5
253
330
1F
100
AcDbEntity
  8
BMK
  6
CENTER
100
AcDbLine
 10
2632.535709764221
 20
1690.824275814532
 30
0.0
 11
2404.96379590281
 21
1690.824275814532
 31
0.0
  0
LINE
  5
254
330
1F
100
AcDbEntity
  8
STR
100
AcDbLine
 10
387.504304618875
 20
1516.490936508134
 30
0.0
 11
378.8021390133621
 21
1636.187976174728
 31
0.0
  0
LINE
  5
255
330
1F
100
AcDbEntity
  8
STR
100
AcDbLine
 10
378.8021390133619
 20
1636.187976174728
 30
0.0
 11
383.7836501762808
 21
1636.623801928711
 31
0.0
  0
LINE
  5
256
330
1F
100
AcDbEntity
  8
STR
100
AcDbLine
 10
387.5043046188752
 20
1516.490936508134
 30
0.0
 11
392.4858157817939
 21
1516.926762262117
 31
0.0
  0
LINE
  5
257
330
1F
100
AcDbEntity
  8
STR
100
AcDbLine
 10
415.1139555968461
 20
1136.724147630045
 30
0.0
 11
406.4117899913332
 21
1256.421187296639
 31
0.0
  0
LINE
  5
258
330
1F
100
AcDbEntity
  8
STR
100
AcDbLine
 10
406.411789991333
 20
1256.421187296639
 30
0.0
 11
411.3933011542519
 21
1256.857013050622
 31
0.0
  0
LINE
  5
259
330
1F
100
AcDbEntity
  8
STR
100
AcDbLine
 10
415.1139555968463
 20
1136.724147630045
 30
0.0
 11
420.095466759765
 21
1137.159973384028
 31
0.0
  0
LINE
  5
25A
330
1F
100
AcDbEntity
  8
STR
100
AcDbLine
 10
401.1796268229106
 20
1328.388841177651
 30
0.0
 11
406.1611379858293
 21
1328.824666931634
 31
0.0
  0
LINE
  5
25B
330
1F
100
AcDbEntity
  8
STR
100
AcDbLine
 10
392.4774612173973
 20
1448.085880844244
 30
0.0
 11
397.4589723803162
 21
1448.521706598228
 31
0.0
  0
LINE
  5
25C
330
1F
100
AcDbEntity
  8
STR
100
AcDbLine
 10
401.1796268229104
 20
1328.38884117765
 30
0.0
 11
392.4774612173976
 21
1448.085880844244
 31
0.0
  0
LINE
  5
25D
330
1F
100
AcDbEntity
  8
STR
100
AcDbLine
 10
1926.716960442935
 20
1155.307416352949
 30
0.0
 11
1976.716960442934
 21
1155.307416352949
 31
0.0
  0
LINE
  5
25E
330
1F
100
AcDbEntity
  8
STR
100
AcDbLine
 10
2131.716960442936
 20
1192.748539189311
 30
0.0
 11
2181.716960442936
 21
1192.748539189311
 31
0.0
  0
LINE
  5
25F
330
1F
100
AcDbEntity
  8
STR
100
AcDbLine
 10
2131.716960442935
 20
1620.307416352948
 30
0.0
 11
2181.716960442935
 21
1620.307416352948
 31
0.0
  0
LINE
  5
260
330
1F
100
AcDbEntity
  8
STR
100
AcDbLine
 10
1926.716960442935
 20
1595.307416352949
 30
0.0
 11
1976.716960442935
 21
1595.307416352949
 31
0.0
  0
LINE
  5
261
330
1F
100
AcDbEntity
  8
STR
100
AcDbLine
 10
524.1033793955437
 20
1125.307416352949
 30
0.0
 11
1926.716960442934
 21
1125.307416352948
 31
0.0
  0
LINE
  5
262
330
1F
100
AcDbEntity
  8
STR
100
AcDbLine
 10
524.1033793955439
 20
1625.307416352949
 30
0.0
 11
1926.716960442935
 21
1625.307416352949
 31
0.0
  0
LINE
  5
263
330
1F
100
AcDbEntity
  8
STR
100
AcDbLine
 10
3930.286318829709
 20
845.3074163529491
 30
0.0
 11
4335.286318829708
 21
845.3074163529494
 31
0.0
  0
LINE
  5
264
330
1F
100
AcDbEntity
  8
BMK
  6
CENTER
100
AcDbLine
 10
2751.716960442935
 20
901.8912562486278
 30
0.0
 11
2751.716960442935
 21
682.2571286048987
 31
0.0
  0
ARC
  5
265
330
1F
100
AcDbEntity
  8
STR
100
AcDbCircle
 10
1891.716960442935
 20
1600.307416352949
 30
0.0
 40
5.0
100
AcDbArc
 50
0.0
 51
90.0
  0
ARC
  5
266
330
1F
100
AcDbEntity
  8
STR
100
AcDbCircle
 10
1871.716960442935
 20
1600.307416352949
 30
0.0
 40
5.0
100
AcDbArc
 50
90.0
 51
180.0
  0
ARC
  5
267
330
1F
100
AcDbEntity
  8
STR
100
AcDbCircle
 10
1891.716960442935
 20
1150.307416352948
 30
0.0
 40
5.0
100
AcDbArc
 50
270.0
 51
0.0
  0
ARC
  5
268
330
1F
100
AcDbEntity
  8
STR
100
AcDbCircle
 10
1871.716960442936
 20
1150.307416352948
 30
0.0
 40
5.0
100
AcDbArc
 50
180.0
 51
270.0
  0
LINE
  5
269
330
1F
100
AcDbEntity
  8
STR
100
AcDbLine
 10
2308.716960442935
 20
1435.307416352949
 30
0.0
 11
2308.716960442935
 21
1727.926739274446
 31
0.0
  0
LINE
  5
26A
330
1F
100
AcDbEntity
  8
STR
100
AcDbLine
 10
2338.716960442936
 20
1435.307416352949
 30
0.0
 11
2338.716960442936
 21
1727.926739274446
 31
0.0
  0
LINE
  5
26B
330
1F
100
AcDbEntity
  8
STR
100
AcDbLine
 10
4067.944939559984
 20
900.3074163529493
 30
0.0
 11
4297.944939559982
 21
900.3074163529493
 31
0.0
  0
LINE
  5
26C
330
1F
100
AcDbEntity
  8
STR
100
AcDbLine
 10
4067.944939559984
 20
950.307416352949
 30
0.0
 11
4067.944939559984
 21
900.307416352952
 31
0.0
  0
LINE
  5
26D
330
1F
100
AcDbEntity
  8
STR
100
AcDbLine
 10
4037.944939559984
 20
950.307416352949
 30
0.0
 11
4037.944939559984
 21
900.3074163529525
 31
0.0
  0
LINE
  5
26E
330
1F
100
AcDbEntity
  8
STR
100
AcDbLine
 10
3905.286318829709
 20
770.3074163529491
 30
0.0
 11
3905.286318829709
 21
900.3074163529493
 31
0.0
  0
LINE
  5
26F
330
1F
100
AcDbEntity
  8
STR
100
AcDbLine
 10
4185.286318829708
 20
770.3074163529492
 30
0.0
 11
4185.286318829708
 21
900.3074163529493
 31
0.0
  0
LINE
  5
270
330
1F
100
AcDbEntity
  8
STR
100
AcDbLine
 10
3930.286318829709
 20
770.3074163529491
 30
0.0
 11
3930.286318829709
 21
900.3074163529493
 31
0.0
  0
LINE
  5
271
330
1F
100
AcDbEntity
  8
STR
100
AcDbLine
 10
4160.286318829707
 20
770.3074163529492
 30
0.0
 11
4160.286318829707
 21
900.3074163529493
 31
0.0
  0
LINE
  5
272
330
1F
100
AcDbEntity
  8
STR
100
AcDbLine
 10
4185.286318829708
 20
770.3074163529492
 30
0.0
 11
4160.286318829707
 21
770.3074163529492
 31
0.0
  0
LINE
  5
273
330
1F
100
AcDbEntity
  8
STR
100
AcDbLine
 10
3930.286318829709
 20
770.3074163529491
 30
0.0
 11
3905.286318829709
 21
770.3074163529491
 31
0.0
  0
LINE
  5
274
330
1F
100
AcDbEntity
  8
STR
100
AcDbLine
 10
3632.627698099433
 20
900.3074163529493
 30
0.0
 11
4037.944939559984
 21
900.3074163529493
 31
0.0
  0
LINE
  5
275
330
1F
100
AcDbEntity
  8
STR
100
AcDbLine
 10
3632.627698099433
 20
950.307416352949
 30
0.0
 11
3632.627698099433
 21
900.3074163529525
 31
0.0
  0
LINE
  5
276
330
1F
100
AcDbEntity
  8
STR
100
AcDbLine
 10
3602.627698099432
 20
950.307416352949
 30
0.0
 11
3602.627698099432
 21
900.307416352952
 31
0.0
  0
LINE
  5
277
330
1F
100
AcDbEntity
  8
STR
100
AcDbLine
 10
3740.286318829708
 20
770.3074163529491
 30
0.0
 11
3765.286318829707
 21
770.3074163529491
 31
0.0
  0
LINE
  5
278
330
1F
100
AcDbEntity
  8
STR
100
AcDbLine
 10
3485.286318829707
 20
770.3074163529491
 30
0.0
 11
3510.286318829708
 21
770.3074163529491
 31
0.0
  0
LINE
  5
279
330
1F
100
AcDbEntity
  8
STR
100
AcDbLine
 10
3510.286318829708
 20
770.3074163529491
 30
0.0
 11
3510.286318829708
 21
900.3074163529493
 31
0.0
  0
LINE
  5
27A
330
1F
100
AcDbEntity
  8
STR
100
AcDbLine
 10
3740.286318829708
 20
770.3074163529491
 30
0.0
 11
3740.286318829708
 21
900.3074163529493
 31
0.0
  0
LINE
  5
27B
330
1F
100
AcDbEntity
  8
STR
100
AcDbLine
 10
3485.286318829707
 20
770.3074163529491
 30
0.0
 11
3485.286318829707
 21
900.3074163529493
 31
0.0
  0
LINE
  5
27C
330
1F
100
AcDbEntity
  8
STR
100
AcDbLine
 10
3765.286318829708
 20
770.3074163529491
 30
0.0
 11
3765.286318829708
 21
900.3074163529493
 31
0.0
  0
LINE
  5
27D
330
1F
100
AcDbEntity
  8
STR
100
AcDbLine
 10
4297.944939559984
 20
1022.688093431451
 30
0.0
 11
4297.944939559982
 21
900.3074163529493
 31
0.0
  0
LINE
  5
27E
330
1F
100
AcDbEntity
  8
STR
100
AcDbLine
 10
3372.627698099432
 20
1022.688093431451
 30
0.0
 11
3372.627698099432
 21
900.3074163529493
 31
0.0
  0
LINE
  5
27F
330
1F
100
AcDbEntity
  8
STR
100
AcDbLine
 10
3345.286318829709
 20
950.3074163529493
 30
0.0
 11
4325.286318829706
 21
950.307416352949
 31
0.0
  0
LINE
  5
280
330
1F
100
AcDbEntity
  8
STR
100
AcDbLine
 10
3372.627698099432
 20
900.3074163529493
 30
0.0
 11
3602.627698099432
 21
900.3074163529493
 31
0.0
  0
CIRCLE
  5
281
330
1F
100
AcDbEntity
  8
STR
100
AcDbCircle
 10
3835.286318829707
 20
845.3074163529491
 30
0.0
 40
30.0
  0
LINE
  5
282
330
1F
100
AcDbEntity
  8
STR
100
AcDbLine
 10
1871.716960442936
 20
1145.307416352949
 30
0.0
 11
1891.716960442935
 21
1145.307416352948
 31
0.0
  0
LINE
  5
283
330
1F
100
AcDbEntity
  8
STR
100
AcDbLine
 10
1871.716960442935
 20
1605.307416352949
 30
0.0
 11
1891.716960442935
 21
1605.307416352949
 31
0.0
  0
LINE
  5
284
330
1F
100
AcDbEntity
  8
BMK
  6
CENTER
100
AcDbLine
 10
2632.535709764221
 20
1125.987303533689
 30
0.0
 11
2404.96379590281
 21
1125.987303533689
 31
0.0
  0
LINE
  5
285
330
1F
100
AcDbEntity
  8
STR
100
AcDbLine
 10
2465.716960442935
 20
1095.2587823766
 30
0.0
 11
2181.716960442936
 21
1095.2587823766
 31
0.0
  0
LINE
  5
286
330
1F
100
AcDbEntity
  8
BMK
  6
CENTER
100
AcDbLine
 10
2632.535709764221
 20
1624.627529172208
 30
0.0
 11
2404.96379590281
 21
1624.627529172208
 31
0.0
  0
LINE
  5
287
330
1F
100
AcDbEntity
  8
STR
100
AcDbLine
 10
2580.116042737029
 20
1095.2587823766
 30
0.0
 11
2489.47268149346
 21
1095.2587823766
 31
0.0
  0
LINE
  5
289
330
1F
100
AcDbEntity
  8
BMK
  6
CENTER
100
AcDbLine
 10
397.5153678001679
 20
1255.307416352948
 30
0.0
 11
524.1033793955439
 21
1255.307416352949
 31
0.0
  0
CIRCLE
  5
28A
330
1F
100
AcDbEntity
  8
STR
100
AcDbCircle
 10
460.8093735978559
 20
1255.307416352948
 30
0.0
 40
40.0
  0
CIRCLE
  5
28B
330
1F
100
AcDbEntity
  8
STR
100
AcDbCircle
 10
460.8093735978559
 20
1255.307416352948
 30
0.0
 40
20.0
  0
CIRCLE
  5
28C
330
1F
100
AcDbEntity
  8
STR
100
AcDbCircle
 10
460.8093735978559
 20
1525.307416352949
 30
0.0
 40
20.0
  0
CIRCLE
  5
28D
330
1F
100
AcDbEntity
  8
STR
100
AcDbCircle
 10
460.8093735978559
 20
1525.307416352949
 30
0.0
 40
40.0
  0
LINE
  5
28E
330
1F
100
AcDbEntity
  8
BMK
  6
CENTER
100
AcDbLine
 10
397.5153678001679
 20
1525.307416352949
 30
0.0
 11
524.1033793955439
 21
1525.307416352949
 31
0.0
  0
LINE
  5
28F
330
1F
100
AcDbEntity
  8
BMK
  6
CENTER
100
AcDbLine
 10
460.8093735978559
 20
1615.307416352949
 30
0.0
 11
460.8093735978559
 21
1165.307416352948
 31
0.0
  0
LINE
  5
290
330
1F
100
AcDbEntity
  8
STR
100
AcDbLine
 10
524.1033793955437
 20
1305.307416352949
 30
0.0
 11
524.1033793955439
 21
1110.307416352949
 31
0.0
  0
LINE
  5
291
330
1F
100
AcDbEntity
  8
STR
100
AcDbLine
 10
405.8241214237225
 20
1305.307416352949
 30
0.0
 11
524.1033793955441
 21
1305.307416352949
 31
0.0
  0
LINE
  5
292
330
1F
100
AcDbEntity
  8
STR
100
AcDbLine
 10
397.5153678001679
 20
1475.307416352949
 30
0.0
 11
524.1033793955439
 21
1475.307416352949
 31
0.0
  0
ARC
  5
293
330
1F
100
AcDbEntity
  8
STR
100
AcDbCircle
 10
499.1033793955439
 20
1670.307416352948
 30
0.0
 40
25.0
100
AcDbArc
 50
0.0
 51
90.0
  0
ARC
  5
294
330
1F
100
AcDbEntity
  8
STR
100
AcDbCircle
 10
406.3994440456897
 20
1670.307416352949
 30
0.0
 40
25.0
100
AcDbArc
 50
90.0
 51
184.749655395253
  0
ARC
  5
295
330
1F
100
AcDbEntity
  8
STR
100
AcDbCircle
 10
499.1033793955439
 20
1110.307416352949
 30
0.0
 40
25.0
100
AcDbArc
 50
270.0
 51
0.0
  0
ARC
  5
296
330
1F
100
AcDbEntity
  8
STR
100
AcDbCircle
 10
447.1123368011094
 20
1110.307416352949
 30
0.0
 40
25.0
100
AcDbArc
 50
184.749655395253
 51
270.0
  0
LINE
  5
297
330
1F
100
AcDbEntity
  8
STR
100
AcDbLine
 10
406.3994440456897
 20
1695.307416352949
 30
0.0
 11
499.1033793955439
 21
1695.307416352949
 31
0.0
  0
LINE
  5
298
330
1F
100
AcDbEntity
  8
STR
100
AcDbLine
 10
447.1123368011094
 20
1085.307416352949
 30
0.0
 11
499.1033793955439
 21
1085.307416352949
 31
0.0
  0
LINE
  5
299
330
1F
100
AcDbEntity
  8
STR
100
AcDbLine
 10
422.198186787893
 20
1108.237361010948
 30
0.0
 11
381.4852940324733
 21
1668.237361010947
 31
0.0
  0
LINE
  5
29A
330
1F
100
AcDbEntity
  8
STR
100
AcDbLine
 10
524.1033793955439
 20
1670.307416352948
 30
0.0
 11
524.1033793955437
 21
1475.307416352949
 31
0.0
  0
LINE
  5
29B
330
1F
100
AcDbEntity
  8
STR
100
AcDbLine
 10
631.7169604429355
 20
1625.307416352949
 30
0.0
 11
631.7169604429355
 21
1125.307416352949
 31
0.0
  0
LINE
  5
29C
330
1F
100
AcDbEntity
  8
STR
100
AcDbLine
 10
931.7169604429357
 20
1625.307416352949
 30
0.0
 11
931.7169604429357
 21
1125.307416352949
 31
0.0
  0
ARC
  5
29D
330
1F
100
AcDbEntity
  8
STR
100
AcDbCircle
 10
1193.887162080475
 20
795.3074163529495
 30
0.0
 40
25.0
100
AcDbArc
 50
180.0
 51
270.0
  0
LINE
  5
29E
330
1F
100
AcDbEntity
  8
STR
100
AcDbLine
 10
1168.887162080475
 20
820.30741635295
 30
0.0
 11
1168.887162080475
 21
795.3074163529495
 31
0.0
  0
LINE
  5
29F
330
1F
100
AcDbEntity
  8
BMK
  6
CENTER
100
AcDbLine
 10
893.6800997239013
 20
1000.307416352949
 30
0.0
 11
893.6800997239016
 21
795.30741635295
 31
0.0
  0
LINE
  5
2A0
330
1F
100
AcDbEntity
  8
BMK
  6
CENTER
100
AcDbLine
 10
1893.680099723901
 20
1000.307416352949
 30
0.0
 11
1893.680099723901
 21
795.3074163529495
 31
0.0
  0
LINE
  5
2A1
330
1F
100
AcDbEntity
  8
BMK
  6
CENTER
100
AcDbLine
 10
1393.680099723901
 20
1000.307416352949
 30
0.0
 11
1393.680099723901
 21
795.30741635295
 31
0.0
  0
LINE
  5
2A2
330
1F
100
AcDbEntity
  8
STR
100
AcDbLine
 10
2681.716960442933
 20
795.3074163529495
 30
0.0
 11
2681.716960442934
 21
950.3074163529493
 31
0.0
  0
LINE
  5
2A3
330
1F
100
AcDbEntity
  8
STR
100
AcDbLine
 10
2656.716960442934
 20
795.3074163529495
 30
0.0
 11
2656.716960442935
 21
950.3074163529493
 31
0.0
  0
LINE
  5
2A4
330
1F
100
AcDbEntity
  8
STR
  6
HIDDEN
100
AcDbLine
 10
2656.716960442934
 20
795.3074163529495
 30
0.0
 11
978.869138472749
 21
795.30741635295
 31
0.0
  0
LINE
  5
2A5
330
1F
100
AcDbEntity
  8
STR
100
AcDbLine
 10
2656.716960442935
 20
795.3074163529495
 30
0.0
 11
2656.716960442935
 21
770.3074163529495
 31
0.0
  0
LINE
  5
2A6
330
1F
100
AcDbEntity
  8
STR
100
AcDbLine
 10
2681.716960442934
 20
795.3074163529495
 30
0.0
 11
2681.716960442935
 21
720.3074163529491
 31
0.0
  0
LINE
  5
2A7
330
1F
100
AcDbEntity
  8
STR
100
AcDbLine
 10
2681.716960442935
 20
795.3074163529495
 30
0.0
 11
2656.716960442934
 21
795.3074163529495
 31
0.0
  0
LINE
  5
2A8
330
1F
100
AcDbEntity
  8
STR
100
AcDbLine
 10
2656.716960442935
 20
770.30741635295
 30
0.0
 11
1193.887162080475
 21
770.3074163529495
 31
0.0
  0
LINE
  5
2A9
330
1F
100
AcDbEntity
  8
STR
100
AcDbLine
 10
2489.472681493461
 20
1192.748539189311
 30
0.0
 11
2489.472681493461
 21
1000.307416352949
 31
0.0
  0
LINE
  5
2AA
330
1F
100
AcDbEntity
  8
STR
100
AcDbLine
 10
2489.472681493461
 20
1192.748539189311
 30
0.0
 11
2465.716960442935
 21
1192.748539189311
 31
0.0
  0
LINE
  5
2AB
330
1F
100
AcDbEntity
  8
STR
100
AcDbLine
 10
2156.716960442934
 20
1192.748539189311
 30
0.0
 11
2156.716960442935
 21
1000.307416352949
 31
0.0
  0
LINE
  5
2AD
330
1F
100
AcDbEntity
  8
STR
100
AcDbLine
 10
2108.59185880577
 20
1000.307416352949
 30
0.0
 11
2108.591858805767
 21
975.3074163529493
 31
0.0
  0
LINE
  5
2B3
330
1F
100
AcDbEntity
  8
STR
100
AcDbLine
 10
731.7169604429355
 20
900.3074163529493
 30
0.0
 11
2656.716960442935
 21
900.3074163529495
 31
0.0
  0
LINE
  5
2B4
330
1F
100
AcDbEntity
  8
STR
100
AcDbLine
 10
2656.716960442934
 20
975.3074163529493
 30
0.0
 11
2656.716960442934
 21
845.3074163529494
 31
0.0
  0
LINE
  5
2B5
330
1F
100
AcDbEntity
  8
STR
100
AcDbLine
 10
2006.716960442934
 20
975.3074163529493
 30
0.0
 11
2006.716960442934
 21
845.3074163529494
 31
0.0
  0
LINE
  5
2B6
330
1F
100
AcDbEntity
  8
STR
100
AcDbLine
 10
2031.716960442935
 20
1695.307416352949
 30
0.0
 11
2031.716960442935
 21
1055.307416352949
 31
0.0
  0
LINE
  5
2B7
330
1F
100
AcDbEntity
  8
STR
100
AcDbLine
 10
2681.716960442936
 20
745.3074163529495
 30
0.0
 11
731.7169604429359
 21
745.30741635295
 31
0.0
  0
LINE
  5
2B8
330
1F
100
AcDbEntity
  8
STR
100
AcDbLine
 10
2580.116042737029
 20
1475.307416352949
 30
0.0
 11
2580.116042737029
 21
1727.926739274447
 31
0.0
  0
LINE
  5
2B9
330
1F
100
AcDbEntity
  8
STR
100
AcDbLine
 10
2610.11604273703
 20
1275.307416352949
 30
0.0
 11
2610.11604273703
 21
1475.307416352949
 31
0.0
  0
LINE
  5
2BA
330
1F
100
AcDbEntity
  8
STR
100
AcDbLine
 10
2495.716960442935
 20
1275.307416352949
 30
0.0
 11
2495.716960442935
 21
1475.307416352949
 31
0.0
  0
LINE
  5
2BB
330
1F
100
AcDbEntity
  8
STR
100
AcDbLine
 10
2781.716960442935
 20
770.3074163529495
 30
0.0
 11
2781.716960442935
 21
720.3074163529491
 31
0.0
  0
LINE
  5
2BC
330
1F
100
AcDbEntity
  8
STR
100
AcDbLine
 10
2706.716960442935
 20
870.3074163529494
 30
0.0
 11
2781.716960442935
 21
870.3074163529493
 31
0.0
  0
LINE
  5
2BD
330
1F
100
AcDbEntity
  8
STR
100
AcDbLine
 10
2706.716960442935
 20
820.3074163529494
 30
0.0
 11
2781.716960442935
 21
820.3074163529491
 31
0.0
  0
LINE
  5
2BE
330
1F
100
AcDbEntity
  8
STR
100
AcDbLine
 10
2706.716960442935
 20
770.3074163529495
 30
0.0
 11
2781.716960442935
 21
770.3074163529491
 31
0.0
  0
LINE
  5
2C0
330
1F
100
AcDbEntity
  8
STR
100
AcDbLine
 10
2656.716960442934
 20
845.3074163529494
 30
0.0
 11
2006.716960442934
 21
845.3074163529494
 31
0.0
  0
LINE
  5
2C2
330
1F
100
AcDbEntity
  8
STR
100
AcDbLine
 10
4335.286318829708
 20
845.3074163529491
 30
0.0
 11
4335.286318829707
 21
975.3074163529488
 31
0.0
  0
LINE
  5
2C3
330
1F
100
AcDbEntity
  8
STR
100
AcDbLine
 10
4285.286318829707
 20
745.3074163529495
 30
0.0
 11
4185.286318829707
 21
845.3074163529491
 31
0.0
  0
LINE
  5
2C4
330
1F
100
AcDbEntity
  8
STR
100
AcDbLine
 10
3385.286318829708
 20
745.3074163529491
 30
0.0
 11
3485.286318829707
 21
845.3074163529491
 31
0.0
  0
LINE
  5
2C5
330
1F
100
AcDbEntity
  8
STR
100
AcDbLine
 10
3335.286318829707
 20
845.3074163529491
 30
0.0
 11
3740.286318829708
 21
845.3074163529491
 31
0.0
  0
LINE
  5
2C6
330
1F
100
AcDbEntity
  8
STR
100
AcDbLine
 10
3385.286318829708
 20
745.3074163529491
 30
0.0
 11
4285.286318829707
 21
745.3074163529495
 31
0.0
  0
LINE
  5
2DD
330
1F
100
AcDbEntity
  8
STR
100
AcDbLine
 10
3724.359645474555
 20
1729.096125891765
 30
0.0
 11
3584.359645474556
 21
1648.267088205219
 31
0.0
  0
LINE
  5
2DE
330
1F
100
AcDbEntity
  8
STR
100
AcDbLine
 10
2706.716960442935
 20
950.307416352949
 30
0.0
 11
2706.716960442935
 21
720.3074163529491
 31
0.0
  0
LINE
  5
2DF
330
1F
100
AcDbEntity
  8
STR
100
AcDbLine
 10
2580.116042737029
 20
975.3074163529495
 30
0.0
 11
2580.116042737029
 21
1275.307416352949
 31
0.0
  0
LINE
  5
2E0
330
1F
100
AcDbEntity
  8
STR
100
AcDbLine
 10
1976.716960442935
 20
1655.307416352948
 30
0.0
 11
2006.716960442935
 21
1655.307416352948
 31
0.0
  0
LINE
  5
2E1
330
1F
100
AcDbEntity
  8
STR
100
AcDbLine
 10
1976.716960442935
 20
1655.307416352949
 30
0.0
 11
1976.716960442935
 21
1595.307416352949
 31
0.0
  0
LINE
  5
2E2
330
1F
100
AcDbEntity
  8
STR
100
AcDbLine
 10
1926.716960442934
 20
1155.307416352949
 30
0.0
 11
1926.716960442934
 21
1125.307416352948
 31
0.0
  0
LINE
  5
2E3
330
1F
100
AcDbEntity
  8
STR
100
AcDbLine
 10
1976.716960442934
 20
1155.307416352948
 30
0.0
 11
1976.716960442933
 21
1095.307416352949
 31
0.0
  0
LINE
  5
2E4
330
1F
100
AcDbEntity
  8
STR
100
AcDbLine
 10
1926.716960442935
 20
1495.307416352949
 30
0.0
 11
1926.716960442935
 21
1255.307416352949
 31
0.0
  0
LINE
  5
2E5
330
1F
100
AcDbEntity
  8
STR
100
AcDbLine
 10
1926.716960442935
 20
1255.307416352949
 30
0.0
 11
1976.716960442935
 21
1255.307416352949
 31
0.0
  0
LINE
  5
2E6
330
1F
100
AcDbEntity
  8
STR
100
AcDbLine
 10
1926.716960442935
 20
1495.307416352949
 30
0.0
 11
1976.716960442935
 21
1495.307416352949
 31
0.0
  0
LINE
  5
2E7
330
1F
100
AcDbEntity
  8
STR
100
AcDbLine
 10
1976.716960442935
 20
1095.307416352949
 30
0.0
 11
2006.716960442935
 21
1095.307416352949
 31
0.0
  0
LINE
  5
2E8
330
1F
100
AcDbEntity
  8
STR
100
AcDbLine
 10
1866.716960442935
 20
1600.307416352949
 30
0.0
 11
1866.716960442935
 21
1150.307416352948
 31
0.0
  0
LINE
  5
2E9
330
1F
100
AcDbEntity
  8
STR
100
AcDbLine
 10
1896.716960442935
 20
1600.307416352949
 30
0.0
 11
1896.716960442935
 21
1150.307416352948
 31
0.0
  0
LINE
  5
2EA
330
1F
100
AcDbEntity
  8
STR
100
AcDbLine
 10
1926.716960442935
 20
1625.307416352949
 30
0.0
 11
1926.716960442935
 21
1595.307416352949
 31
0.0
  0
LINE
  5
2EB
330
1F
100
AcDbEntity
  8
STR
100
AcDbLine
 10
1976.716960442934
 20
1495.307416352949
 30
0.0
 11
1976.716960442935
 21
1255.307416352949
 31
0.0
  0
LINE
  5
2EC
330
1F
100
AcDbEntity
  8
STR
100
AcDbLine
 10
2211.716960442936
 20
1315.307416352949
 30
0.0
 11
2435.716960442935
 21
1315.307416352949
 31
0.0
  0
LINE
  5
2ED
330
1F
100
AcDbEntity
  8
STR
100
AcDbLine
 10
2211.716960442936
 20
1435.307416352949
 30
0.0
 11
2435.716960442935
 21
1435.307416352949
 31
0.0
  0
LINE
  5
2EE
330
1F
100
AcDbEntity
  8
STR
100
AcDbLine
 10
2435.716960442936
 20
1042.688093431451
 30
0.0
 11
2435.716960442935
 21
1727.926739274446
 31
0.0
  0
LINE
  5
2EF
330
1F
100
AcDbEntity
  8
STR
100
AcDbLine
 10
2338.716960442936
 20
1042.688093431452
 30
0.0
 11
2338.716960442936
 21
1315.307416352949
 31
0.0
  0
LINE
  5
2F0
330
1F
100
AcDbEntity
  8
STR
100
AcDbLine
 10
2308.716960442936
 20
1042.688093431452
 30
0.0
 11
2308.716960442935
 21
1315.307416352949
 31
0.0
  0
LINE
  5
2F1
330
1F
100
AcDbEntity
  8
STR
100
AcDbLine
 10
2211.716960442936
 20
1042.688093431451
 30
0.0
 11
2211.716960442936
 21
1727.926739274446
 31
0.0
  0
LINE
  5
2F2
330
1F
100
AcDbEntity
  8
STR
100
AcDbLine
 10
2465.716960442935
 20
1000.307416352949
 30
0.0
 11
2465.716960442934
 21
1727.926739274446
 31
0.0
  0
LINE
  5
2F3
330
1F
100
AcDbEntity
  8
STR
100
AcDbLine
 10
2181.716960442936
 20
1000.307416352949
 30
0.0
 11
2181.716960442936
 21
1727.926739274446
 31
0.0
  0
LINE
  5
2F4
330
1F
100
AcDbEntity
  8
STR
100
AcDbLine
 10
2081.716960442935
 20
1095.307416352949
 30
0.0
 11
2131.716960442935
 21
1095.307416352949
 31
0.0
  0
LINE
  5
2F5
330
1F
100
AcDbEntity
  8
STR
100
AcDbLine
 10
2081.716960442935
 20
1655.307416352948
 30
0.0
 11
2131.716960442935
 21
1655.307416352948
 31
0.0
  0
LINE
  5
2F6
330
1F
100
AcDbEntity
  8
STR
100
AcDbLine
 10
2006.716960442935
 20
1055.307416352949
 30
0.0
 11
2081.716960442935
 21
1055.307416352949
 31
0.0
  0
LINE
  5
2F7
330
1F
100
AcDbEntity
  8
STR
100
AcDbLine
 10
2006.716960442935
 20
1695.307416352949
 30
0.0
 11
2081.716960442935
 21
1695.307416352949
 31
0.0
  0
LINE
  5
2F8
330
1F
100
AcDbEntity
  8
STR
100
AcDbLine
 10
2181.716960442936
 20
1600.307416352948
 30
0.0
 11
2181.716960442936
 21
1150.30741635295
 31
0.0
  0
LINE
  5
2F9
330
1F
100
AcDbEntity
  8
STR
100
AcDbLine
 10
2131.716960442936
 20
1655.307416352948
 30
0.0
 11
2131.716960442935
 21
1095.307416352949
 31
0.0
  0
LINE
  5
2FA
330
1F
100
AcDbEntity
  8
STR
100
AcDbLine
 10
2081.716960442935
 20
1695.307416352949
 30
0.0
 11
2081.716960442935
 21
1055.307416352949
 31
0.0
  0
LINE
  5
2FB
330
1F
100
AcDbEntity
  8
STR
100
AcDbLine
 10
2006.716960442935
 20
1695.307416352949
 30
0.0
 11
2006.716960442934
 21
1055.307416352949
 31
0.0
  0
LINE
  5
2FC
330
1F
100
AcDbEntity
  8
STR
100
AcDbLine
 10
731.7169604429355
 20
950.3074163529493
 30
0.0
 11
2706.716960442935
 21
950.3074163529493
 31
0.0
  0
LINE
  5
2FE
330
1F
100
AcDbEntity
  8
BMK
  6
CENTER
100
AcDbLine
 10
364.2345724420092
 20
1375.307416352949
 30
0.0
 11
4562.260121492494
 21
1375.307416352949
 31
0.0
  0
LINE
  5
2FF
330
1F
100
AcDbEntity
  8
STR
100
AcDbLine
 10
3695.286318829708
 20
1456.136454039497
 30
0.0
 11
3584.359645474556
 21
1648.267088205219
 31
0.0
  0
LINE
  5
300
330
1F
100
AcDbEntity
  8
STR
100
AcDbLine
 10
3835.286318829707
 20
1536.965491726044
 30
0.0
 11
3724.359645474555
 21
1729.096125891765
 31
0.0
  0
LINE
  5
301
330
1F
100
AcDbEntity
  8
STR
100
AcDbLine
 10
3695.286318829708
 20
1456.136454039497
 30
0.0
 11
3695.286318829708
 21
1294.478378666401
 31
0.0
  0
LINE
  5
302
330
1F
100
AcDbEntity
  8
STR
100
AcDbLine
 10
3835.286318829707
 20
1536.965491726044
 30
0.0
 11
3695.286318829708
 21
1456.136454039497
 31
0.0
  0
LINE
  5
303
330
1F
100
AcDbEntity
  8
STR
100
AcDbLine
 10
3975.286318829708
 20
1456.136454039496
 30
0.0
 11
3835.286318829707
 21
1536.965491726044
 31
0.0
  0
LINE
  5
304
330
1F
100
AcDbEntity
  8
STR
100
AcDbLine
 10
3975.286318829708
 20
1294.478378666401
 30
0.0
 11
3975.286318829708
 21
1456.136454039496
 31
0.0
  0
LINE
  5
305
330
1F
100
AcDbEntity
  8
STR
100
AcDbLine
 10
3835.286318829707
 20
1213.649340979854
 30
0.0
 11
3975.286318829708
 21
1294.478378666401
 31
0.0
  0
LINE
  5
306
330
1F
100
AcDbEntity
  8
STR
100
AcDbLine
 10
3695.286318829708
 20
1294.478378666401
 30
0.0
 11
3835.286318829707
 21
1213.649340979854
 31
0.0
  0
CIRCLE
  5
307
330
1F
100
AcDbEntity
  8
STR
100
AcDbCircle
 10
3835.286318829707
 20
1375.307416352949
 30
0.0
 40
140.0
  0
CIRCLE
  5
308
330
1F
100
AcDbEntity
  8
STR
100
AcDbCircle
 10
3835.286318829707
 20
1375.307416352949
 30
0.0
 40
100.0
  0
LINE
  5
309
330
1F
100
AcDbEntity
  8
STR
100
AcDbLine
 10
4310.286318829708
 20
1221.890780098949
 30
0.0
 11
4310.286318829707
 21
1529.694927413497
 31
0.0
  0
LINE
  5
30A
330
1F
100
AcDbEntity
  8
STR
100
AcDbLine
 10
3360.286318829708
 20
1221.89078009895
 30
0.0
 11
3360.286318829707
 21
1528.724052606948
 31
0.0
  0
LINE
  5
30D
330
1F
100
AcDbEntity
  8
BMK
  6
CENTER
100
AcDbLine
 10
3835.286318829707
 20
647.1550636442789
 30
0.0
 11
3835.286318829707
 21
2108.745509774077
 31
0.0
  0
LINE
  5
30E
330
1F
100
AcDbEntity
  8
STR
100
AcDbLine
 10
3335.286318829707
 20
845.3074163529491
 30
0.0
 11
3335.286318829707
 21
975.3074163529493
 31
0.0
  0
LINE
  5
30F
330
1F
100
AcDbEntity
  8
STR
100
AcDbLine
 10
3385.286318829708
 20
720.3074163529491
 30
0.0
 11
4285.286318829707
 21
720.3074163529495
 31
0.0
  0
LINE
  5
310
330
1F
100
AcDbEntity
  8
STR
100
AcDbLine
 10
2781.716960442935
 20
870.3074163529494
 30
0.0
 11
2781.716960442935
 21
820.3074163529491
 31
0.0
  0
LINE
  5
311
330
1F
100
AcDbEntity
  8
STR
100
AcDbLine
 10
731.7169604429357
 20
950.3074163529493
 30
0.0
 11
731.7169604429355
 21
720.3074163529495
 31
0.0
  0
LINE
  5
312
330
1F
100
AcDbEntity
  8
STR
100
AcDbLine
 10
731.7169604429355
 20
720.3074163529491
 30
0.0
 11
2781.716960442935
 21
720.3074163529491
 31
0.0
  0
LINE
  5
4DC
330
1F
100
AcDbEntity
  8
STR
100
AcDbLine
 10
2108.59185880577
 20
1000.307416352949
 30
0.0
 11
2631.716960442934
 21
1000.307416352949
 31
0.0
  0
LINE
  5
4EA
330
1F
100
AcDbEntity
  8
STR
100
AcDbLine
 10
2378.716960442935
 20
1815.307416352951
 30
0.0
 11
2378.716960442935
 21
1727.926739274446
 31
0.0
  0
LINE
  5
4EB
330
1F
100
AcDbEntity
  8
STR
100
AcDbLine
 10
2268.716960442935
 20
1815.307416352951
 30
0.0
 11
2268.716960442934
 21
1727.926739274447
 31
0.0
  0
LINE
  5
4EC
330
1F
100
AcDbEntity
  8
STR
100
AcDbLine
 10
2258.716960442936
 20
1727.926739274446
 30
0.0
 11
2388.716960442935
 21
1727.926739274446
 31
0.0
  0
LINE
  5
4ED
330
1F
100
AcDbEntity
  8
STR
100
AcDbLine
 10
2218.716960442935
 20
2025.30741635295
 30
0.0
 11
2428.716960442937
 21
2025.30741635295
 31
0.0
  0
LINE
  5
4EE
330
1F
100
AcDbEntity
  8
STR
100
AcDbLine
 10
2428.716960442936
 20
2025.307416352949
 30
0.0
 11
2428.716960442935
 21
1815.307416352951
 31
0.0
  0
LINE
  5
4EF
330
1F
100
AcDbEntity
  8
STR
100
AcDbLine
 10
2218.716960442936
 20
2025.307416352949
 30
0.0
 11
2218.716960442937
 21
1815.307416352951
 31
0.0
  0
LINE
  5
4F3
330
1F
100
AcDbEntity
  8
STR
100
AcDbLine
 10
2631.716960442934
 20
1042.688093431451
 30
0.0
 11
2181.716960442936
 21
1042.688093431451
 31
0.0
  0
LINE
  5
4F5
330
1F
100
AcDbEntity
  8
STR
100
AcDbLine
 10
2465.716960442935
 20
1022.688093431452
 30
0.0
 11
2181.716960442936
 21
1022.688093431452
 31
0.0
  0
LINE
  5
4F6
330
1F
100
AcDbEntity
  8
STR
100
AcDbLine
 10
2631.716960442934
 20
975.3074163529493
 30
0.0
 11
2631.716960442934
 21
1042.688093431451
 31
0.0
  0
LINE
  5
4F7
330
1F
100
AcDbEntity
  8
STR
100
AcDbLine
 10
2580.116042737029
 20
1727.926739274446
 30
0.0
 11
2181.716960442936
 21
1727.926739274446
 31
0.0
  0
LINE
  5
4F9
330
1F
100
AcDbEntity
  8
STR
100
AcDbLine
 10
2465.716960442935
 20
1655.356050329298
 30
0.0
 11
2181.716960442936
 21
1655.356050329298
 31
0.0
  0
LINE
  5
51E
330
1F
100
AcDbEntity
  8
BMK
100
AcDbLine
 10
2604.450005754141
 20
1077.78678587999
 30
0.0
 11
2604.450005754141
 21
768.2459903352301
 31
0.0
  0
LINE
  5
51F
330
1F
100
AcDbEntity
  8
BMK
100
AcDbLine
 10
2130.295083899305
 20
1029.4210319964
 30
0.0
 11
2130.295083899305
 21
945.5870689110316
 31
0.0
  0
LINE
  5
520
330
1F
100
AcDbEntity
  8
BMK
100
AcDbLine
 10
2517.138836986566
 20
1029.4210319964
 30
0.0
 11
2517.138836986566
 21
945.5870689110316
 31
0.0
  0
LINE
  5
521
330
1F
100
AcDbEntity
  8
STR
100
AcDbLine
 10
2308.716960442936
 20
975.3074163529495
 30
0.0
 11
2308.716960442936
 21
845.3074163529494
 31
0.0
  0
LINE
  5
524
330
1F
100
AcDbEntity
  8
STR
100
AcDbLine
 10
2218.716960442936
 20
1815.307416352951
 30
0.0
 11
2428.716960442935
 21
1815.307416352951
 31
0.0
  0
LINE
  5
545
330
1F
100
AcDbEntity
  8
STR
100
AcDbLine
 10
3560.28621438681
 20
1728.928447196326
 30
0.0
 11
4110.286423272603
 21
1729.490532824119
 31
0.0
  0
LINE
  5
54F
330
1F
100
AcDbEntity
  8
STR
  6
HIDDEN
100
AcDbLine
 10
3835.286318829708
 20
1652.435545563969
 30
0.0
 11
3595.286318829709
 21
1513.87148095846
 31
0.0
  0
LINE
  5
550
330
1F
100
AcDbEntity
  8
STR
  6
HIDDEN
100
AcDbLine
 10
3595.286318829709
 20
1513.87148095846
 30
0.0
 11
3595.286318829707
 21
1236.74335174744
 31
0.0
  0
LINE
  5
551
330
1F
100
AcDbEntity
  8
STR
  6
HIDDEN
100
AcDbLine
 10
3595.286318829707
 20
1236.74335174744
 30
0.0
 11
3835.286318829707
 21
1098.179287141929
 31
0.0
  0
LINE
  5
552
330
1F
100
AcDbEntity
  8
STR
  6
HIDDEN
100
AcDbLine
 10
3835.286318829707
 20
1098.179287141929
 30
0.0
 11
4075.286318829706
 21
1236.743351747438
 31
0.0
  0
LINE
  5
553
330
1F
100
AcDbEntity
  8
STR
  6
HIDDEN
100
AcDbLine
 10
4075.286318829706
 20
1236.743351747438
 30
0.0
 11
4075.286318829708
 21
1513.871480958458
 31
0.0
  0
LINE
  5
554
330
1F
100
AcDbEntity
  8
STR
  6
HIDDEN
100
AcDbLine
 10
4075.286318829708
 20
1513.871480958458
 30
0.0
 11
3835.286318829708
 21
1652.435545563969
 31
0.0
  0
LINE
  5
555
330
1F
100
AcDbEntity
  8
STR
100
AcDbLine
 10
3975.286318829708
 20
1456.136454039497
 30
0.0
 11
4086.21299218486
 21
1648.267088205219
 31
0.0
  0
LINE
  5
556
330
1F
100
AcDbEntity
  8
STR
100
AcDbLine
 10
3946.212992184861
 20
1729.096125891765
 30
0.0
 11
4086.21299218486
 21
1648.267088205219
 31
0.0
  0
LINE
  5
557
330
1F
100
AcDbEntity
  8
STR
100
AcDbLine
 10
3835.286318829707
 20
1536.965491726044
 30
0.0
 11
3946.21299218486
 21
1729.096125891765
 31
0.0
  0
LINE
  5
558
330
1F
100
AcDbEntity
  8
STR
100
AcDbLine
 10
3835.286318829707
 20
1213.649340979853
 30
0.0
 11
3946.212992184858
 21
1021.518706814131
 31
0.0
  0
LINE
  5
559
330
1F
100
AcDbEntity
  8
STR
100
AcDbLine
 10
3946.212992184859
 20
1021.518706814132
 30
0.0
 11
4086.212992184858
 21
1102.347744500677
 31
0.0
  0
LINE
  5
55A
330
1F
100
AcDbEntity
  8
STR
100
AcDbLine
 10
3975.286318829708
 20
1294.478378666399
 30
0.0
 11
4086.212992184858
 21
1102.347744500677
 31
0.0
  0
LINE
  5
55B
330
1F
100
AcDbEntity
  8
STR
100
AcDbLine
 10
3835.286318829707
 20
1213.649340979853
 30
0.0
 11
3724.359645474554
 21
1021.518706814132
 31
0.0
  0
LINE
  5
55C
330
1F
100
AcDbEntity
  8
STR
100
AcDbLine
 10
3724.359645474553
 20
1021.518706814132
 30
0.0
 11
3584.359645474554
 21
1102.347744500679
 31
0.0
  0
LINE
  5
55D
330
1F
100
AcDbEntity
  8
STR
100
AcDbLine
 10
3695.286318829707
 20
1294.4783786664
 30
0.0
 11
3584.359645474554
 21
1102.347744500679
 31
0.0
  0
LINE
  5
55E
330
1F
100
AcDbEntity
  8
BMK
100
AcDbLine
 10
3790.286318829707
 20
1453.249702693549
 30
0.0
 11
3629.359645474555
 21
1731.982877237714
 31
0.0
  0
LINE
  5
562
330
1F
100
AcDbEntity
  8
BMK
100
AcDbLine
 10
3880.286318829708
 20
1453.249702693549
 30
0.0
 11
4041.212992184861
 21
1731.982877237714
 31
0.0
  0
LINE
  5
563
330
1F
100
AcDbEntity
  8
BMK
100
AcDbLine
 10
3790.286318829707
 20
1297.365130012348
 30
0.0
 11
3629.359645474553
 21
1018.631955468184
 31
0.0
  0
LINE
  5
564
330
1F
100
AcDbEntity
  8
BMK
100
AcDbLine
 10
3880.286318829708
 20
1297.365130012348
 30
0.0
 11
4041.212992184859
 21
1018.631955468182
 31
0.0
  0
LINE
  5
565
330
1F
100
AcDbEntity
  8
STR
100
AcDbLine
 10
3355.286318829708
 20
1022.688093431451
 30
0.0
 11
4315.286318829703
 21
1022.688093431451
 31
0.0
  0
LINE
  5
569
330
1F
100
AcDbEntity
  8
STR
100
AcDbLine
 10
3360.286318829708
 20
1456.136454039497
 30
0.0
 11
3695.286318829708
 21
1456.136454039497
 31
0.0
  0
LINE
  5
56B
330
1F
100
AcDbEntity
  8
STR
100
AcDbLine
 10
3360.286318829708
 20
1294.4783786664
 30
0.0
 11
3695.286318829708
 21
1294.4783786664
 31
0.0
  0
LINE
  5
57F
330
1F
100
AcDbEntity
  8
STR
100
AcDbLine
 10
3360.286318829707
 20
1528.724052606948
 30
0.0
 11
3560.28621438681
 21
1728.928447196326
 31
0.0
  0
LINE
  5
580
330
1F
100
AcDbEntity
  8
STR
100
AcDbLine
 10
4110.286423272603
 20
1729.490532824119
 30
0.0
 11
4310.286318829707
 21
1529.694927413497
 31
0.0
  0
LINE
  5
583
330
1F
100
AcDbEntity
  8
STR
100
AcDbLine
 10
3345.286318829709
 20
1000.307416352949
 30
0.0
 11
4325.286318829706
 21
1000.307416352949
 31
0.0
  0
LINE
  5
585
330
1F
100
AcDbEntity
  8
STR
100
AcDbLine
 10
3345.286318829709
 20
950.3074163529493
 30
0.0
 11
3345.286318829709
 21
1000.307416352949
 31
0.0
  0
LINE
  5
587
330
1F
100
AcDbEntity
  8
STR
100
AcDbLine
 10
4325.286318829706
 20
950.307416352949
 30
0.0
 11
4325.286318829706
 21
1000.307416352949
 31
0.0
  0
LINE
  5
588
330
1F
100
AcDbEntity
  8
STR
100
AcDbLine
 10
3355.286318829708
 20
975.3074163529495
 30
0.0
 11
3355.286318829708
 21
1221.890780098949
 31
0.0
  0
LINE
  5
58B
330
1F
100
AcDbEntity
  8
STR
100
AcDbLine
 10
3355.286318829708
 20
1221.890780098949
 30
0.0
 11
3555.286214386812
 21
1021.686385509571
 31
0.0
  0
LINE
  5
58C
330
1F
100
AcDbEntity
  8
STR
100
AcDbLine
 10
3355.286318829708
 20
1221.890780098949
 30
0.0
 11
3380.286318829708
 21
1221.89078009895
 31
0.0
  0
LINE
  5
58E
330
1F
100
AcDbEntity
  8
STR
100
AcDbLine
 10
3380.286318829708
 20
1221.89078009895
 30
0.0
 11
3580.286214386811
 21
1021.686385509572
 31
0.0
  0
LINE
  5
5A2
330
1F
100
AcDbEntity
  8
BMK
100
AcDbLine
 10
4018.871179839895
 20
1022.688093431451
 30
0.0
 11
4018.871179839895
 21
745.3074163529495
 31
0.0
  0
LINE
  5
5A3
330
1F
100
AcDbEntity
  8
BMK
100
AcDbLine
 10
3651.701457819516
 20
1022.688093431451
 30
0.0
 11
3651.701457819516
 21
745.3074163529495
 31
0.0
  0
LINE
  5
5A5
330
1F
100
AcDbEntity
  8
STR
100
AcDbLine
 10
4290.286318829703
 20
1221.89078009895
 30
0.0
 11
4090.2864232726
 21
1021.686385509572
 31
0.0
  0
LINE
  5
5A6
330
1F
100
AcDbEntity
  8
STR
100
AcDbLine
 10
4315.286318829703
 20
1221.890780098949
 30
0.0
 11
4115.286423272601
 21
1021.686385509571
 31
0.0
  0
LINE
  5
5A7
330
1F
100
AcDbEntity
  8
STR
100
AcDbLine
 10
4315.286318829703
 20
975.3074163529495
 30
0.0
 11
4315.286318829703
 21
1221.890780098949
 31
0.0
  0
LINE
  5
5A8
330
1F
100
AcDbEntity
  8
STR
100
AcDbLine
 10
4290.286318829703
 20
1221.89078009895
 30
0.0
 11
4315.286318829703
 21
1221.890780098949
 31
0.0
  0
LINE
  5
5A9
330
1F
100
AcDbEntity
  8
STR
100
AcDbLine
 10
3975.286318829708
 20
1456.136454039497
 30
0.0
 11
4310.286318829708
 21
1456.136454039497
 31
0.0
  0
LINE
  5
5AA
330
1F
100
AcDbEntity
  8
STR
100
AcDbLine
 10
3975.286318829708
 20
1294.4783786664
 30
0.0
 11
4310.286318829707
 21
1294.4783786664
 31
0.0
  0
LINE
  5
5AB
330
1F
100
AcDbEntity
  8
STR
100
AcDbLine
 10
3630.286318829709
 20
1815.307416352951
 30
0.0
 11
4040.286318829706
 21
1815.307416352952
 31
0.0
  0
LINE
  5
5AC
330
1F
100
AcDbEntity
  8
STR
100
AcDbLine
 10
3630.286318829708
 20
2025.307416352949
 30
0.0
 11
3630.286318829709
 21
1815.307416352951
 31
0.0
  0
LINE
  5
5AD
330
1F
100
AcDbEntity
  8
STR
100
AcDbLine
 10
4040.286318829708
 20
2025.307416352949
 30
0.0
 11
4040.286318829706
 21
1815.307416352951
 31
0.0
  0
LINE
  5
5AE
330
1F
100
AcDbEntity
  8
STR
100
AcDbLine
 10
3630.286318829708
 20
2025.307416352949
 30
0.0
 11
4040.286318829707
 21
2025.30741635295
 31
0.0
  0
LINE
  5
5AF
330
1F
100
AcDbEntity
  8
STR
100
AcDbLine
 10
3740.286318829706
 20
1815.307416352951
 30
0.0
 11
3740.286318829706
 21
1727.926739274447
 31
0.0
  0
LINE
  5
5B0
330
1F
100
AcDbEntity
  8
STR
100
AcDbLine
 10
3930.286318829706
 20
1815.307416352951
 30
0.0
 11
3930.286318829706
 21
1727.926739274446
 31
0.0
  0
LINE
  5
5C0
330
1F
100
AcDbEntity
  8
STR
100
AcDbLine
 10
4310.286318829707
 20
1262.807416352949
 30
0.0
 11
4335.286318829707
 21
1262.807416352949
 31
0.0
  0
LINE
  5
5C1
330
1F
100
AcDbEntity
  8
STR
100
AcDbLine
 10
4335.286318829707
 20
1262.807416352949
 30
0.0
 11
4335.286318829708
 21
1350.307416352949
 31
0.0
  0
LINE
  5
5C2
330
1F
100
AcDbEntity
  8
STR
100
AcDbLine
 10
4485.286318829706
 20
1350.307416352949
 30
0.0
 11
4485.286318829706
 21
1375.307416352949
 31
0.0
  0
LINE
  5
5C3
330
1F
100
AcDbEntity
  8
STR
100
AcDbLine
 10
4335.286318829708
 20
1350.307416352949
 30
0.0
 11
4485.286318829706
 21
1350.307416352949
 31
0.0
  0
LINE
  5
5C4
330
1F
100
AcDbEntity
  8
STR
100
AcDbLine
 10
4435.286318829707
 20
1535.307416352949
 30
0.0
 11
4435.286318829707
 21
1655.307416352949
 31
0.0
  0
LINE
  5
5C5
330
1F
100
AcDbEntity
  8
STR
100
AcDbLine
 10
4360.286318829708
 20
1535.307416352949
 30
0.0
 11
4360.286318829707
 21
1655.307416352949
 31
0.0
  0
LINE
  5
5C6
330
1F
100
AcDbEntity
  8
STR
100
AcDbLine
 10
4435.286318829707
 20
1655.307416352949
 30
0.0
 11
4360.286318829708
 21
1655.307416352949
 31
0.0
  0
LINE
  5
5C7
330
1F
100
AcDbEntity
  8
STR
100
AcDbLine
 10
4460.286318829707
 20
1535.307416352949
 30
0.0
 11
4335.286318829708
 21
1535.307416352949
 31
0.0
  0
LINE
  5
5C8
330
1F
100
AcDbEntity
  8
STR
100
AcDbLine
 10
4460.286318829707
 20
1375.307416352949
 30
0.0
 11
4460.286318829707
 21
1535.307416352949
 31
0.0
  0
LINE
  5
5C9
330
1F
100
AcDbEntity
  8
STR
100
AcDbLine
 10
4335.286318829708
 20
1375.307416352949
 30
0.0
 11
4335.286318829708
 21
1535.307416352949
 31
0.0
  0
LINE
  5
5CA
330
1F
100
AcDbEntity
  8
STR
100
AcDbLine
 10
4485.286318829706
 20
1375.307416352949
 30
0.0
 11
4310.286318829708
 21
1375.307416352949
 31
0.0
  0
LINE
  5
835
330
1F
100
AcDbEntity
  8
STR
100
AcDbLine
 10
3385.286318829708
 20
720.3074163529491
 30
0.0
 11
3385.286318829708
 21
745.3074163529491
 31
0.0
  0
LINE
  5
836
330
1F
100
AcDbEntity
  8
STR
100
AcDbLine
 10
4285.286318829707
 20
720.3074163529491
 30
0.0
 11
4285.286318829707
 21
745.3074163529495
 31
0.0
  0
LINE
  5
926
330
1F
100
AcDbEntity
  8
STR
100
AcDbLine
 10
731.7169604429355
 20
694.6824163529493
 30
0.0
 11
731.7169604429355
 21
478.1331023086279
 31
0.0
  0
LINE
  5
927
330
1F
100
AcDbEntity
  8
STR
100
AcDbLine
 10
2781.716960442935
 20
694.6824163529493
 30
0.0
 11
2781.716960442935
 21
478.1331023086279
 31
0.0
  0
LINE
  5
928
330
1F
100
AcDbEntity
  8
STR
100
AcDbLine
 10
781.7169604429355
 20
479.3831023086279
 30
0.0
 11
2731.716960442935
 21
479.3831023086279
 31
0.0
  0
LINE
  5
92C
330
1F
100
AcDbEntity
  8
STR
100
AcDbLine
 10
2031.716960442935
 20
2057.044985447013
 30
0.0
 11
2031.716960442935
 21
2322.354201841646
 31
0.0
  0
LINE
  5
92D
330
1F
100
AcDbEntity
  8
STR
100
AcDbLine
 10
2781.716960442935
 20
2057.044985447013
 30
0.0
 11
2781.716960442935
 21
2322.354201841646
 31
0.0
  0
LINE
  5
92E
330
1F
100
AcDbEntity
  8
STR
100
AcDbLine
 10
2081.716960442935
 20
2321.104201841646
 30
0.0
 11
2731.716960442935
 21
2321.104201841646
 31
0.0
  0
LINE
  5
932
330
1F
100
AcDbEntity
  8
STR
100
AcDbLine
 10
1224.785169919239
 20
1625.307416352949
 30
0.0
 11
1224.160169919239
 21
1625.307416352949
 31
0.0
  0
LINE
  5
933
330
1F
100
AcDbEntity
  8
STR
100
AcDbLine
 10
1224.785169919239
 20
1125.307416352949
 30
0.0
 11
1224.160169919239
 21
1125.307416352949
 31
0.0
  0
LINE
  5
934
330
1F
100
AcDbEntity
  8
STR
100
AcDbLine
 10
1225.410169919239
 20
1575.307416352949
 30
0.0
 11
1225.410169919239
 21
1175.307416352949
 31
0.0
  0
MTEXT
  5
937
330
1F
100
AcDbEntity
  8
STR
100
AcDbMText
 10
1165.410169919238
 20
1375.307416352949
 30
0.0
 40
60.0
 41
0.0
 71
     5
 72
     1
  1
　
 11
0.0000000000000001
 21
1.0
 31
0.0
1001
ACAD
1000
MTEXTBEGIN
1070
    73
1070
     1
1070
    44
1040
1.0
1070
    74
1070
     0
1000
MTEXTEND
  0
LINE
  5
938
330
1F
100
AcDbEntity
  8
STR
100
AcDbLine
 10
706.0919604429357
 20
950.3074163529493
 30
0.0
 11
651.7118766686062
 21
950.3074163529493
 31
0.0
  0
LINE
  5
939
330
1F
100
AcDbEntity
  8
STR
100
AcDbLine
 10
838.0193177735819
 20
975.3074163529488
 30
0.0
 11
651.7118766686062
 21
975.307416352949
 31
0.0
  0
LINE
  5
93A
330
1F
100
AcDbEntity
  8
STR
100
AcDbLine
 10
652.9618766686062
 20
900.3074163529493
 30
0.0
 11
652.9618766686062
 21
850.3074163529493
 31
0.0
  0
LINE
  5
93B
330
1F
100
AcDbEntity
  8
STR
100
AcDbLine
 10
652.9618766686062
 20
1025.307416352948
 30
0.0
 11
652.9618766686062
 21
1075.307416352948
 31
0.0
  0
LINE
  5
93D
330
1F
100
AcDbEntity
  8
STR
100
AcDbLine
 10
652.9618766686062
 20
950.3074163529493
 30
0.0
 11
652.9618766686062
 21
975.307416352949
 31
0.0
  0
LINE
  5
940
330
1F
100
AcDbEntity
  8
STR
100
AcDbLine
 10
801.4836185934454
 20
975.3074163529495
 30
0.0
 11
800.8586185934454
 21
975.3074163529495
 31
0.0
  0
LINE
  5
941
330
1F
100
AcDbEntity
  8
STR
100
AcDbLine
 10
607.3419604429354
 20
1375.307416352949
 30
0.0
 11
803.3586185934456
 21
1375.307416352949
 31
0.0
  0
LINE
  5
942
330
1F
100
AcDbEntity
  8
STR
100
AcDbLine
 10
802.1086185934455
 20
1025.307416352949
 30
0.0
 11
802.1086185934455
 21
1325.307416352949
 31
0.0
  0
LINE
  5
946
330
1F
100
AcDbEntity
  8
STR
100
AcDbLine
 10
706.0919604429354
 20
720.3074163529495
 30
0.0
 11
651.7118766686061
 21
720.3074163529495
 31
0.0
  0
LINE
  5
947
330
1F
100
AcDbEntity
  8
STR
100
AcDbLine
 10
706.0919604429357
 20
950.3074163529493
 30
0.0
 11
651.7118766686062
 21
950.3074163529493
 31
0.0
  0
LINE
  5
948
330
1F
100
AcDbEntity
  8
STR
100
AcDbLine
 10
652.9618766686062
 20
770.3074163529495
 30
0.0
 11
652.9618766686062
 21
900.3074163529493
 31
0.0
  0
LINE
  5
94C
330
1F
100
AcDbEntity
  8
STR
100
AcDbLine
 10
2181.716960442936
 20
2056.419985447013
 30
0.0
 11
2181.716960442936
 21
2159.464478992106
 31
0.0
  0
LINE
  5
94D
330
1F
100
AcDbEntity
  8
STR
100
AcDbLine
 10
2465.716960442935
 20
2056.419985447013
 30
0.0
 11
2465.716960442935
 21
2159.464478992106
 31
0.0
  0
LINE
  5
94E
330
1F
100
AcDbEntity
  8
STR
100
AcDbLine
 10
2231.716960442935
 20
2158.214478992106
 30
0.0
 11
2415.716960442935
 21
2158.214478992106
 31
0.0
  0
LINE
  5
952
330
1F
100
AcDbEntity
  8
STR
100
AcDbLine
 10
2807.966960442935
 20
2025.307416352949
 30
0.0
 11
3129.785989782408
 21
2025.307416352949
 31
0.0
  0
LINE
  5
953
330
1F
100
AcDbEntity
  8
STR
100
AcDbLine
 10
2807.341960442935
 20
720.3074163529493
 30
0.0
 11
3129.785989782408
 21
720.3074163529492
 31
0.0
  0
LINE
  5
954
330
1F
100
AcDbEntity
  8
STR
100
AcDbLine
 10
3128.535989782408
 20
1975.307416352949
 30
0.0
 11
3128.535989782408
 21
770.3074163529492
 31
0.0
  0
LINE
  5
958
330
1F
100
AcDbEntity
  8
STR
100
AcDbLine
 10
3335.286318829707
 20
627.8736488695403
 30
0.0
 11
3335.286318829707
 21
257.0547223836704
 31
0.0
  0
LINE
  5
959
330
1F
100
AcDbEntity
  8
STR
100
AcDbLine
 10
4335.286318829708
 20
627.8736488695403
 30
0.0
 11
4335.286318829708
 21
257.0547223836704
 31
0.0
  0
LINE
  5
95A
330
1F
100
AcDbEntity
  8
STR
100
AcDbLine
 10
3385.286318829708
 20
258.3047223836704
 30
0.0
 11
4285.286318829708
 21
258.3047223836704
 31
0.0
  0
LINE
  5
95E
330
1F
100
AcDbEntity
  8
STR
100
AcDbLine
 10
3385.286318829708
 20
627.8736488695403
 30
0.0
 11
3385.286318829708
 21
435.1347958447552
 31
0.0
  0
LINE
  5
95F
330
1F
100
AcDbEntity
  8
STR
100
AcDbLine
 10
4285.286318829707
 20
627.8736488695403
 30
0.0
 11
4285.286318829707
 21
435.1347958447552
 31
0.0
  0
LINE
  5
960
330
1F
100
AcDbEntity
  8
STR
100
AcDbLine
 10
3435.286318829708
 20
436.3847958447552
 30
0.0
 11
4235.286318829707
 21
436.3847958447552
 31
0.0
  0
LINE
  5
964
330
1F
100
AcDbEntity
  8
STR
100
AcDbLine
 10
2989.041985639513
 20
720.3074163529493
 30
0.0
 11
2956.321722851834
 21
720.3074163529493
 31
0.0
  0
LINE
  5
965
330
1F
100
AcDbEntity
  8
STR
100
AcDbLine
 10
2989.041985639513
 20
1375.307416352949
 30
0.0
 11
2956.321722851834
 21
1375.307416352949
 31
0.0
  0
LINE
  5
966
330
1F
100
AcDbEntity
  8
STR
100
AcDbLine
 10
2957.571722851834
 20
770.3074163529493
 30
0.0
 11
2957.571722851834
 21
1325.307416352949
 31
0.0
  0
LINE
  5
96A
330
1F
100
AcDbEntity
  8
STR
100
AcDbLine
 10
4335.286318829707
 20
1237.182416352949
 30
0.0
 11
4335.286318829707
 21
1123.747311168028
 31
0.0
  0
LINE
  5
96B
330
1F
100
AcDbEntity
  8
STR
100
AcDbLine
 10
4485.286318829706
 20
1321.124795217617
 30
0.0
 11
4485.286318829706
 21
1123.747311168028
 31
0.0
  0
LINE
  5
96C
330
1F
100
AcDbEntity
  8
STR
100
AcDbLine
 10
4285.286318829707
 20
1124.997311168028
 30
0.0
 11
4235.286318829706
 21
1124.997311168028
 31
0.0
  0
LINE
  5
96D
330
1F
100
AcDbEntity
  8
STR
100
AcDbLine
 10
4535.286318829707
 20
1124.997311168028
 30
0.0
 11
4775.286318829706
 21
1124.997311168028
 31
0.0
  0
LINE
  5
96E
330
1F
100
AcDbEntity
  8
STR
100
AcDbLine
 10
4335.286318829707
 20
1124.997311168028
 30
0.0
 11
4485.286318829706
 21
1124.997311168028
 31
0.0
  0
LINE
  5
972
330
1F
100
AcDbEntity
  8
STR
100
AcDbLine
 10
3360.286318829707
 20
2074.835033016332
 30
0.0
 11
3360.286318829707
 21
2312.055658260018
 31
0.0
  0
LINE
  5
973
330
1F
100
AcDbEntity
  8
STR
100
AcDbLine
 10
4310.286318829708
 20
2074.835033016332
 30
0.0
 11
4310.286318829708
 21
2312.055658260018
 31
0.0
  0
LINE
  5
974
330
1F
100
AcDbEntity
  8
STR
100
AcDbLine
 10
3410.286318829708
 20
2310.805658260018
 30
0.0
 11
4260.286318829708
 21
2310.805658260018
 31
0.0
  0
LINE
  5
978
330
1F
100
AcDbEntity
  8
STR
  6
BYBLOCK
 62
     0
100
AcDbLine
 10
781.7169604429355
 20
465.9856428086278
 30
0.0
 11
731.7169604429355
 21
479.3831023086279
 31
0.0
  0
LINE
  5
979
330
1F
100
AcDbEntity
  8
STR
  6
BYBLOCK
 62
     0
100
AcDbLine
 10
731.7169604429355
 20
479.3831023086279
 30
0.0
 11
781.7169604429355
 21
492.7805618086279
 31
0.0
  0
LINE
  5
97A
330
1F
100
AcDbEntity
  8
STR
  6
BYBLOCK
 62
     0
100
AcDbLine
 10
731.7169604429355
 20
479.3831023086279
 30
0.0
 11
781.7169604429355
 21
479.3831023086279
 31
0.0
  0
TEXT
  5
97B
330
1F
100
AcDbEntity
  8
STR
100
AcDbText
 10
622.9618766686061
 20
950.3074163529495
 30
0.0
 40
60.0
  1
25
 50
90.0
100
AcDbText
  0
TEXT
  5
97C
330
1F
100
AcDbEntity
  8
STR
100
AcDbText
 10
622.9618766686059
 20
760.3074163529495
 30
0.0
 40
60.0
  1
230
 50
90.0
100
AcDbText
  0
LINE
  5
97D
330
1F
100
AcDbEntity
  8
STR
  6
BYBLOCK
 62
     0
100
AcDbLine
 10
666.3593361686061
 20
770.3074163529495
 30
0.0
 11
652.9618766686061
 21
720.3074163529495
 31
0.0
  0
LINE
  5
97E
330
1F
100
AcDbEntity
  8
STR
  6
BYBLOCK
 62
     0
100
AcDbLine
 10
652.9618766686061
 20
720.3074163529495
 30
0.0
 11
639.5644171686061
 21
770.3074163529495
 31
0.0
  0
LINE
  5
97F
330
1F
100
AcDbEntity
  8
STR
  6
BYBLOCK
 62
     0
100
AcDbLine
 10
652.9618766686061
 20
720.3074163529495
 30
0.0
 11
652.9618766686061
 21
770.3074163529495
 31
0.0
  0
LINE
  5
980
330
1F
100
AcDbEntity
  8
STR
  6
BYBLOCK
 62
     0
100
AcDbLine
 10
639.5644171686062
 20
900.3074163529493
 30
0.0
 11
652.9618766686062
 21
950.3074163529493
 31
0.0
  0
LINE
  5
981
330
1F
100
AcDbEntity
  8
STR
  6
BYBLOCK
 62
     0
100
AcDbLine
 10
652.9618766686062
 20
950.3074163529493
 30
0.0
 11
666.3593361686062
 21
900.3074163529493
 31
0.0
  0
LINE
  5
982
330
1F
100
AcDbEntity
  8
STR
  6
BYBLOCK
 62
     0
100
AcDbLine
 10
652.9618766686062
 20
950.3074163529493
 30
0.0
 11
652.9618766686062
 21
900.3074163529493
 31
0.0
  0
LINE
  5
983
330
1F
100
AcDbEntity
  8
STR
  6
BYBLOCK
 62
     0
100
AcDbLine
 10
639.5644171686062
 20
900.3074163529493
 30
0.0
 11
652.9618766686062
 21
950.3074163529493
 31
0.0
  0
LINE
  5
984
330
1F
100
AcDbEntity
  8
STR
  6
BYBLOCK
 62
     0
100
AcDbLine
 10
652.9618766686062
 20
950.3074163529493
 30
0.0
 11
666.3593361686062
 21
900.3074163529493
 31
0.0
  0
LINE
  5
985
330
1F
100
AcDbEntity
  8
STR
  6
BYBLOCK
 62
     0
100
AcDbLine
 10
652.9618766686062
 20
950.3074163529493
 30
0.0
 11
652.9618766686062
 21
900.3074163529493
 31
0.0
  0
LINE
  5
986
330
1F
100
AcDbEntity
  8
STR
  6
BYBLOCK
 62
     0
100
AcDbLine
 10
666.3593361686062
 20
1025.307416352948
 30
0.0
 11
652.9618766686062
 21
975.307416352949
 31
0.0
  0
LINE
  5
987
330
1F
100
AcDbEntity
  8
STR
  6
BYBLOCK
 62
     0
100
AcDbLine
 10
652.9618766686062
 20
975.307416352949
 30
0.0
 11
639.5644171686062
 21
1025.307416352948
 31
0.0
  0
LINE
  5
988
330
1F
100
AcDbEntity
  8
STR
  6
BYBLOCK
 62
     0
100
AcDbLine
 10
652.9618766686062
 20
975.307416352949
 30
0.0
 11
652.9618766686062
 21
1025.307416352948
 31
0.0
  0
LINE
  5
989
330
1F
100
AcDbEntity
  8
STR
  6
BYBLOCK
 62
     0
100
AcDbLine
 10
815.5060780934455
 20
1025.307416352949
 30
0.0
 11
802.1086185934455
 21
975.3074163529495
 31
0.0
  0
LINE
  5
98A
330
1F
100
AcDbEntity
  8
STR
  6
BYBLOCK
 62
     0
100
AcDbLine
 10
802.1086185934455
 20
975.3074163529495
 30
0.0
 11
788.7111590934455
 21
1025.307416352949
 31
0.0
  0
LINE
  5
98B
330
1F
100
AcDbEntity
  8
STR
  6
BYBLOCK
 62
     0
100
AcDbLine
 10
802.1086185934455
 20
975.3074163529495
 30
0.0
 11
802.1086185934455
 21
1025.307416352949
 31
0.0
  0
TEXT
  5
98C
330
1F
100
AcDbEntity
  8
STR
100
AcDbText
 10
772.1086185934455
 20
1169.83927388879
 30
0.0
 40
60.0
  1
400
 50
90.0
100
AcDbText
  0
LINE
  5
98D
330
1F
100
AcDbEntity
  8
STR
  6
BYBLOCK
 62
     0
100
AcDbLine
 10
788.7111590934456
 20
1325.307416352949
 30
0.0
 11
802.1086185934455
 21
1375.307416352949
 31
0.0
  0
LINE
  5
98E
330
1F
100
AcDbEntity
  8
STR
  6
BYBLOCK
 62
     0
100
AcDbLine
 10
802.1086185934455
 20
1375.307416352949
 30
0.0
 11
815.5060780934455
 21
1325.307416352949
 31
0.0
  0
LINE
  5
98F
330
1F
100
AcDbEntity
  8
STR
  6
BYBLOCK
 62
     0
100
AcDbLine
 10
802.1086185934455
 20
1375.307416352949
 30
0.0
 11
802.1086185934455
 21
1325.307416352949
 31
0.0
  0
TEXT
  5
990
330
1F
100
AcDbEntity
  8
STR
100
AcDbText
 10
1656.716960442935
 20
509.3831023086279
 30
0.0
 40
60.0
  1
2050
100
AcDbText
  0
LINE
  5
991
330
1F
100
AcDbEntity
  8
STR
  6
BYBLOCK
 62
     0
100
AcDbLine
 10
1238.807629419239
 20
1175.307416352949
 30
0.0
 11
1225.410169919239
 21
1125.307416352949
 31
0.0
  0
LINE
  5
992
330
1F
100
AcDbEntity
  8
STR
  6
BYBLOCK
 62
     0
100
AcDbLine
 10
1225.410169919239
 20
1125.307416352949
 30
0.0
 11
1212.012710419239
 21
1175.307416352949
 31
0.0
  0
LINE
  5
993
330
1F
100
AcDbEntity
  8
STR
  6
BYBLOCK
 62
     0
100
AcDbLine
 10
1225.410169919239
 20
1125.307416352949
 30
0.0
 11
1225.410169919239
 21
1175.307416352949
 31
0.0
  0
LINE
  5
994
330
1F
100
AcDbEntity
  8
STR
  6
BYBLOCK
 62
     0
100
AcDbLine
 10
1212.012710419239
 20
1575.307416352949
 30
0.0
 11
1225.410169919239
 21
1625.307416352949
 31
0.0
  0
LINE
  5
995
330
1F
100
AcDbEntity
  8
STR
  6
BYBLOCK
 62
     0
100
AcDbLine
 10
1225.410169919239
 20
1625.307416352949
 30
0.0
 11
1238.807629419239
 21
1575.307416352949
 31
0.0
  0
LINE
  5
996
330
1F
100
AcDbEntity
  8
STR
  6
BYBLOCK
 62
     0
100
AcDbLine
 10
1225.410169919239
 20
1625.307416352949
 30
0.0
 11
1225.410169919239
 21
1575.307416352949
 31
0.0
  0
LINE
  5
997
330
1F
100
AcDbEntity
  8
STR
  6
BYBLOCK
 62
     0
100
AcDbLine
 10
2081.716960442935
 20
2307.706742341646
 30
0.0
 11
2031.716960442935
 21
2321.104201841646
 31
0.0
  0
LINE
  5
998
330
1F
100
AcDbEntity
  8
STR
  6
BYBLOCK
 62
     0
100
AcDbLine
 10
2031.716960442935
 20
2321.104201841646
 30
0.0
 11
2081.716960442935
 21
2334.501661341646
 31
0.0
  0
LINE
  5
999
330
1F
100
AcDbEntity
  8
STR
  6
BYBLOCK
 62
     0
100
AcDbLine
 10
2031.716960442935
 20
2321.104201841646
 30
0.0
 11
2081.716960442935
 21
2321.104201841646
 31
0.0
  0
TEXT
  5
99A
330
1F
100
AcDbEntity
  8
STR
100
AcDbText
 10
2243.716960442935
 20
2188.214478992106
 30
0.0
 40
60.0
  1
284
100
AcDbText
  0
LINE
  5
99B
330
1F
100
AcDbEntity
  8
STR
  6
BYBLOCK
 62
     0
100
AcDbLine
 10
2231.716960442935
 20
2144.817019492106
 30
0.0
 11
2181.716960442936
 21
2158.214478992106
 31
0.0
  0
LINE
  5
99C
330
1F
100
AcDbEntity
  8
STR
  6
BYBLOCK
 62
     0
100
AcDbLine
 10
2181.716960442936
 20
2158.214478992106
 30
0.0
 11
2231.716960442935
 21
2171.611938492106
 31
0.0
  0
LINE
  5
99D
330
1F
100
AcDbEntity
  8
STR
  6
BYBLOCK
 62
     0
100
AcDbLine
 10
2181.716960442936
 20
2158.214478992106
 30
0.0
 11
2231.716960442935
 21
2158.214478992106
 31
0.0
  0
LINE
  5
99E
330
1F
100
AcDbEntity
  8
STR
  6
BYBLOCK
 62
     0
100
AcDbLine
 10
2415.716960442935
 20
2171.611938492106
 30
0.0
 11
2465.716960442935
 21
2158.214478992106
 31
0.0
  0
LINE
  5
99F
330
1F
100
AcDbEntity
  8
STR
  6
BYBLOCK
 62
     0
100
AcDbLine
 10
2465.716960442935
 20
2158.214478992106
 30
0.0
 11
2415.716960442935
 21
2144.817019492106
 31
0.0
  0
LINE
  5
9A0
330
1F
100
AcDbEntity
  8
STR
  6
BYBLOCK
 62
     0
100
AcDbLine
 10
2465.716960442935
 20
2158.214478992106
 30
0.0
 11
2415.716960442935
 21
2158.214478992106
 31
0.0
  0
TEXT
  5
9A1
330
1F
100
AcDbEntity
  8
STR
100
AcDbText
 10
2331.716960442935
 20
2351.104201841646
 30
0.0
 40
60.0
  1
750
100
AcDbText
  0
LINE
  5
9A2
330
1F
100
AcDbEntity
  8
STR
  6
BYBLOCK
 62
     0
100
AcDbLine
 10
2731.716960442935
 20
492.780561808628
 30
0.0
 11
2781.716960442935
 21
479.3831023086279
 31
0.0
  0
LINE
  5
9A3
330
1F
100
AcDbEntity
  8
STR
  6
BYBLOCK
 62
     0
100
AcDbLine
 10
2781.716960442935
 20
479.3831023086279
 30
0.0
 11
2731.716960442935
 21
465.9856428086278
 31
0.0
  0
LINE
  5
9A4
330
1F
100
AcDbEntity
  8
STR
  6
BYBLOCK
 62
     0
100
AcDbLine
 10
2781.716960442935
 20
479.3831023086279
 30
0.0
 11
2731.716960442935
 21
479.3831023086279
 31
0.0
  0
LINE
  5
9A5
330
1F
100
AcDbEntity
  8
STR
  6
BYBLOCK
 62
     0
100
AcDbLine
 10
3385.286318829708
 20
244.9072628836704
 30
0.0
 11
3335.286318829707
 21
258.3047223836704
 31
0.0
  0
LINE
  5
9A6
330
1F
100
AcDbEntity
  8
STR
  6
BYBLOCK
 62
     0
100
AcDbLine
 10
3335.286318829707
 20
258.3047223836704
 30
0.0
 11
3385.286318829708
 21
271.7021818836704
 31
0.0
  0
LINE
  5
9A7
330
1F
100
AcDbEntity
  8
STR
  6
BYBLOCK
 62
     0
100
AcDbLine
 10
3335.286318829707
 20
258.3047223836704
 30
0.0
 11
3385.286318829708
 21
258.3047223836704
 31
0.0
  0
LINE
  5
9A8
330
1F
100
AcDbEntity
  8
STR
  6
BYBLOCK
 62
     0
100
AcDbLine
 10
3435.286318829708
 20
422.9873363447551
 30
0.0
 11
3385.286318829708
 21
436.3847958447552
 31
0.0
  0
LINE
  5
9A9
330
1F
100
AcDbEntity
  8
STR
  6
BYBLOCK
 62
     0
100
AcDbLine
 10
3385.286318829708
 20
436.3847958447552
 30
0.0
 11
3435.286318829708
 21
449.7822553447551
 31
0.0
  0
LINE
  5
9AA
330
1F
100
AcDbEntity
  8
STR
  6
BYBLOCK
 62
     0
100
AcDbLine
 10
3385.286318829708
 20
436.3847958447552
 30
0.0
 11
3435.286318829708
 21
436.3847958447552
 31
0.0
  0
TEXT
  5
9AB
330
1F
100
AcDbEntity
  8
STR
100
AcDbText
 10
3750.286318829707
 20
288.3047223836704
 30
0.0
 40
60.0
  1
1000
100
AcDbText
  0
TEXT
  5
9AC
330
1F
100
AcDbEntity
  8
STR
100
AcDbText
 10
3765.286318829708
 20
466.3847958447552
 30
0.0
 40
60.0
  1
900
100
AcDbText
  0
TEXT
  5
9AD
330
1F
100
AcDbEntity
  8
STR
100
AcDbText
 10
2927.571722851833
 20
967.8074163529498
 30
0.0
 40
60.0
  1
655
 50
90.0
100
AcDbText
  0
LINE
  5
9AE
330
1F
100
AcDbEntity
  8
STR
  6
BYBLOCK
 62
     0
100
AcDbLine
 10
2970.969182351833
 20
770.3074163529493
 30
0.0
 11
2957.571722851834
 21
720.3074163529493
 31
0.0
  0
LINE
  5
9AF
330
1F
100
AcDbEntity
  8
STR
  6
BYBLOCK
 62
     0
100
AcDbLine
 10
2957.571722851834
 20
720.3074163529493
 30
0.0
 11
2944.174263351833
 21
770.3074163529493
 31
0.0
  0
LINE
  5
9B0
330
1F
100
AcDbEntity
  8
STR
  6
BYBLOCK
 62
     0
100
AcDbLine
 10
2957.571722851834
 20
720.3074163529493
 30
0.0
 11
2957.571722851834
 21
770.3074163529493
 31
0.0
  0
LINE
  5
9B1
330
1F
100
AcDbEntity
  8
STR
  6
BYBLOCK
 62
     0
100
AcDbLine
 10
3141.933449282408
 20
770.3074163529492
 30
0.0
 11
3128.535989782408
 21
720.3074163529492
 31
0.0
  0
LINE
  5
9B2
330
1F
100
AcDbEntity
  8
STR
  6
BYBLOCK
 62
     0
100
AcDbLine
 10
3128.535989782408
 20
720.3074163529492
 30
0.0
 11
3115.138530282408
 21
770.3074163529492
 31
0.0
  0
LINE
  5
9B3
330
1F
100
AcDbEntity
  8
STR
  6
BYBLOCK
 62
     0
100
AcDbLine
 10
3128.535989782408
 20
720.3074163529492
 30
0.0
 11
3128.535989782408
 21
770.3074163529492
 31
0.0
  0
TEXT
  5
9B4
330
1F
100
AcDbEntity
  8
STR
100
AcDbText
 10
3098.535989782408
 20
1277.807416352949
 30
0.0
 40
60.0
  1
1305
 50
90.0
100
AcDbText
  0
LINE
  5
9B5
330
1F
100
AcDbEntity
  8
STR
  6
BYBLOCK
 62
     0
100
AcDbLine
 10
2944.174263351834
 20
1325.307416352949
 30
0.0
 11
2957.571722851834
 21
1375.307416352949
 31
0.0
  0
LINE
  5
9B6
330
1F
100
AcDbEntity
  8
STR
  6
BYBLOCK
 62
     0
100
AcDbLine
 10
2957.571722851834
 20
1375.307416352949
 30
0.0
 11
2970.969182351834
 21
1325.307416352949
 31
0.0
  0
LINE
  5
9B7
330
1F
100
AcDbEntity
  8
STR
  6
BYBLOCK
 62
     0
100
AcDbLine
 10
2957.571722851834
 20
1375.307416352949
 30
0.0
 11
2957.571722851834
 21
1325.307416352949
 31
0.0
  0
LINE
  5
9B8
330
1F
100
AcDbEntity
  8
STR
  6
BYBLOCK
 62
     0
100
AcDbLine
 10
4285.286318829708
 20
271.7021818836704
 30
0.0
 11
4335.286318829708
 21
258.3047223836704
 31
0.0
  0
LINE
  5
9B9
330
1F
100
AcDbEntity
  8
STR
  6
BYBLOCK
 62
     0
100
AcDbLine
 10
4335.286318829708
 20
258.3047223836704
 30
0.0
 11
4285.286318829708
 21
244.9072628836704
 31
0.0
  0
LINE
  5
9BA
330
1F
100
AcDbEntity
  8
STR
  6
BYBLOCK
 62
     0
100
AcDbLine
 10
4335.286318829708
 20
258.3047223836704
 30
0.0
 11
4285.286318829708
 21
258.3047223836704
 31
0.0
  0
LINE
  5
9BB
330
1F
100
AcDbEntity
  8
STR
  6
BYBLOCK
 62
     0
100
AcDbLine
 10
4235.286318829707
 20
449.7822553447552
 30
0.0
 11
4285.286318829707
 21
436.3847958447552
 31
0.0
  0
LINE
  5
9BC
330
1F
100
AcDbEntity
  8
STR
  6
BYBLOCK
 62
     0
100
AcDbLine
 10
4285.286318829707
 20
436.3847958447552
 30
0.0
 11
4235.286318829707
 21
422.9873363447551
 31
0.0
  0
LINE
  5
9BD
330
1F
100
AcDbEntity
  8
STR
  6
BYBLOCK
 62
     0
100
AcDbLine
 10
4285.286318829707
 20
436.3847958447552
 30
0.0
 11
4235.286318829707
 21
436.3847958447552
 31
0.0
  0
LINE
  5
9BE
330
1F
100
AcDbEntity
  8
STR
  6
BYBLOCK
 62
     0
100
AcDbLine
 10
4285.286318829707
 20
1138.394770668028
 30
0.0
 11
4335.286318829707
 21
1124.997311168028
 31
0.0
  0
LINE
  5
9BF
330
1F
100
AcDbEntity
  8
STR
  6
BYBLOCK
 62
     0
100
AcDbLine
 10
4335.286318829707
 20
1124.997311168028
 30
0.0
 11
4285.286318829707
 21
1111.599851668028
 31
0.0
  0
LINE
  5
9C0
330
1F
100
AcDbEntity
  8
STR
  6
BYBLOCK
 62
     0
100
AcDbLine
 10
4335.286318829707
 20
1124.997311168028
 30
0.0
 11
4285.286318829707
 21
1124.997311168028
 31
0.0
  0
TEXT
  5
9C1
330
1F
100
AcDbEntity
  8
STR
100
AcDbText
 10
4615.286318829706
 20
1154.997311168028
 30
0.0
 40
60.0
  1
150
100
AcDbText
  0
LINE
  5
9C2
330
1F
100
AcDbEntity
  8
STR
  6
BYBLOCK
 62
     0
100
AcDbLine
 10
4535.286318829707
 20
1111.599851668028
 30
0.0
 11
4485.286318829706
 21
1124.997311168028
 31
0.0
  0
LINE
  5
9C3
330
1F
100
AcDbEntity
  8
STR
  6
BYBLOCK
 62
     0
100
AcDbLine
 10
4485.286318829706
 20
1124.997311168028
 30
0.0
 11
4535.286318829707
 21
1138.394770668028
 31
0.0
  0
LINE
  5
9C4
330
1F
100
AcDbEntity
  8
STR
  6
BYBLOCK
 62
     0
100
AcDbLine
 10
4485.286318829706
 20
1124.997311168028
 30
0.0
 11
4535.286318829707
 21
1124.997311168028
 31
0.0
  0
LINE
  5
9C5
330
1F
100
AcDbEntity
  8
STR
  6
BYBLOCK
 62
     0
100
AcDbLine
 10
2731.716960442935
 20
2334.501661341646
 30
0.0
 11
2781.716960442935
 21
2321.104201841646
 31
0.0
  0
LINE
  5
9C6
330
1F
100
AcDbEntity
  8
STR
  6
BYBLOCK
 62
     0
100
AcDbLine
 10
2781.716960442935
 20
2321.104201841646
 30
0.0
 11
2731.716960442935
 21
2307.706742341646
 31
0.0
  0
LINE
  5
9C7
330
1F
100
AcDbEntity
  8
STR
  6
BYBLOCK
 62
     0
100
AcDbLine
 10
2781.716960442935
 20
2321.104201841646
 30
0.0
 11
2731.716960442935
 21
2321.104201841646
 31
0.0
  0
LINE
  5
9C8
330
1F
100
AcDbEntity
  8
STR
  6
BYBLOCK
 62
     0
100
AcDbLine
 10
3115.138530282409
 20
1975.307416352949
 30
0.0
 11
3128.535989782408
 21
2025.307416352949
 31
0.0
  0
LINE
  5
9C9
330
1F
100
AcDbEntity
  8
STR
  6
BYBLOCK
 62
     0
100
AcDbLine
 10
3128.535989782408
 20
2025.307416352949
 30
0.0
 11
3141.933449282408
 21
1975.307416352949
 31
0.0
  0
LINE
  5
9CA
330
1F
100
AcDbEntity
  8
STR
  6
BYBLOCK
 62
     0
100
AcDbLine
 10
3128.535989782408
 20
2025.307416352949
 30
0.0
 11
3128.535989782408
 21
1975.307416352949
 31
0.0
  0
LINE
  5
9CB
330
1F
100
AcDbEntity
  8
STR
  6
BYBLOCK
 62
     0
100
AcDbLine
 10
3410.286318829708
 20
2297.408198760018
 30
0.0
 11
3360.286318829707
 21
2310.805658260018
 31
0.0
  0
LINE
  5
9CC
330
1F
100
AcDbEntity
  8
STR
  6
BYBLOCK
 62
     0
100
AcDbLine
 10
3360.286318829707
 20
2310.805658260018
 30
0.0
 11
3410.286318829708
 21
2324.203117760018
 31
0.0
  0
LINE
  5
9CD
330
1F
100
AcDbEntity
  8
STR
  6
BYBLOCK
 62
     0
100
AcDbLine
 10
3360.286318829707
 20
2310.805658260018
 30
0.0
 11
3410.286318829708
 21
2310.805658260018
 31
0.0
  0
TEXT
  5
9CE
330
1F
100
AcDbEntity
  8
STR
100
AcDbText
 10
3760.286318829708
 20
2340.805658260018
 30
0.0
 40
60.0
  1
950
100
AcDbText
  0
LINE
  5
9CF
330
1F
100
AcDbEntity
  8
STR
  6
BYBLOCK
 62
     0
100
AcDbLine
 10
4260.286318829708
 20
2324.203117760018
 30
0.0
 11
4310.286318829708
 21
2310.805658260018
 31
0.0
  0
LINE
  5
9D0
330
1F
100
AcDbEntity
  8
STR
  6
BYBLOCK
 62
     0
100
AcDbLine
 10
4310.286318829708
 20
2310.805658260018
 30
0.0
 11
4260.286318829708
 21
2297.408198760018
 31
0.0
  0
LINE
  5
9D1
330
1F
100
AcDbEntity
  8
STR
  6
BYBLOCK
 62
     0
100
AcDbLine
 10
4310.286318829708
 20
2310.805658260018
 30
0.0
 11
4260.286318829708
 21
2310.805658260018
 31
0.0
  0
ENDSEC
  0
SECTION
  2
OBJECTS
  0
DICTIONARY
  5
C
330
0
100
AcDbDictionary
  3
ACAD_COLOR
350
6B
  3
ACAD_GROUP
350
D
  3
ACAD_LAYOUT
350
1A
  3
ACAD_MATERIAL
350
6A
  3
ACAD_MLINESTYLE
350
17
  3
ACAD_PLOTSETTINGS
350
19
  3
ACAD_PLOTSTYLENAME
350
E
  3
ACDBHEADERROUNDTRIPXREC
350
9D3
  3
ACDBVARIABLEDICTIONARY
350
5E
  0
DICTIONARY
  5
86D
330
1F
100
AcDbDictionary
280
     1
  3
ACAD_LAYOUTSELFREF
360
9F4
  0
DICTIONARY
  5
86F
330
854
100
AcDbDictionary
280
     1
  3
ACAD_LAYOUTSELFREF
360
9F5
  0
DICTIONARY
  5
6B
102
{ACAD_REACTORS
330
C
102
}
330
C
100
AcDbDictionary
  0
DICTIONARY
  5
D
102
{ACAD_REACTORS
330
C
102
}
330
C
100
AcDbDictionary
  0
DICTIONARY
  5
1A
102
{ACAD_REACTORS
330
C
102
}
330
C
100
AcDbDictionary
  0
DICTIONARY
  5
6A
102
{ACAD_REACTORS
330
C
102
}
330
C
100
AcDbDictionary
  0
DICTIONARY
  5
17
102
{ACAD_REACTORS
330
C
102
}
330
C
100
AcDbDictionary
  3
STANDARD
350
18
  0
DICTIONARY
  5
19
102
{ACAD_REACTORS
330
C
102
}
330
C
100
AcDbDictionary
  0
ACDBDICTIONARYWDFLT
  5
E
102
{ACAD_REACTORS
330
C
102
}
330
C
100
AcDbDictionary
281
     1
  3
Normal
350
F
100
AcDbDictionaryWithDefault
340
F
  0
DICTIONARY
  5
9D3
102
{ACAD_REACTORS
330
C
102
}
330
C
100
AcDbDictionary
  3
CEPSNTYPE
350
9DD
  3
DIMSTYLEDATA
350
9E1
  3
FINGERPRINTGUID
350
9DE
  3
HYPERLINKBASE
350
9D6
  3
INSUNITS
350
9DC
  3
LAYOUTDICT
350
9D8
  3
LWETCUNION
350
9DB
  3
PLOTSETDICT
350
9D9
  3
PLOTSTYLNAMDICT
350
9DA
  3
PSVPSCALE
350
9E0
  3
PUCSBASE
350
9E4
  3
PUCSORGBACK
350
9EA
  3
PUCSORGBOTTOM
350
9E6
  3
PUCSORGFRONT
350
9E9
  3
PUCSORGLEFT
350
9E7
  3
PUCSORGRIGHT
350
9E8
  3
PUCSORGTOP
350
9E5
  3
PUCSORTHOREF
350
9E2
  3
PUCSORTHOVIEW
350
9E3
  3
STYLESHEET
350
9D7
  3
TSTACKALIGN
350
9D4
  3
TSTACKSIZE
350
9D5
  3
UCSBASE
350
9ED
  3
UCSORGBACK
350
9F3
  3
UCSORGBOTTOM
350
9EF
  3
UCSORGFRONT
350
9F2
  3
UCSORGLEFT
350
9F0
  3
UCSORGRIGHT
350
9F1
  3
UCSORGTOP
350
9EE
  3
UCSORTHOREF
350
9EB
  3
UCSORTHOVIEW
350
9EC
  3
VERSIONGUID
350
9DF
  0
DICTIONARY
  5
5E
102
{ACAD_REACTORS
330
C
102
}
330
C
100
AcDbDictionary
  3
DIMASSOC
350
5F
  3
HIDETEXT
350
63
  3
PROJECTNAME
350
867
  0
XRECORD
  5
9F4
102
{ACAD_REACTORS
330
86D
102
}
330
86D
100
AcDbXrecord
340
1F
  0
XRECORD
  5
9F5
102
{ACAD_REACTORS
330
86F
102
}
330
86F
100
AcDbXrecord
340
854
  0
MLINESTYLE
  5
18
102
{ACAD_REACTORS
330
17
102
}
330
17
100
AcDbMlineStyle
  2
STANDARD
 70
     0
  3

 62
   256
 51
90.0
 52
90.0
 71
     2
 49
0.5
 62
   256
  6
BYLAYER
 49
-0.5
 62
   256
  6
BYLAYER
  0
ACDBPLACEHOLDER
  5
F
102
{ACAD_REACTORS
330
E
102
}
330
E
100
AcDbPlaceHolder
280
     0
  0
XRECORD
  5
9DD
102
{ACAD_REACTORS
330
9D3
102
}
330
9D3
100
AcDbXrecord
 90
        0
  0
XRECORD
  5
9E1
102
{ACAD_REACTORS
330
9D3
102
}
330
9D3
100
AcDbXrecord
1000
DSTYLE
1002
{
1070
   278
 70
    44
1070
   341
340
ED
1070
   342
340
9F
1002
}
  0
XRECORD
  5
9DE
102
{ACAD_REACTORS
330
9D3
102
}
330
9D3
100
AcDbXrecord
  1
{FDEAD578-A652-11D2-9A35-0060089B3A3F}
  0
XRECORD
  5
9D6
102
{ACAD_REACTORS
330
9D3
102
}
330
9D3
100
AcDbXrecord
  1

  0
XRECORD
  5
9DC
102
{ACAD_REACTORS
330
9D3
102
}
330
9D3
100
AcDbXrecord
 90
        4
  0
XRECORD
  5
9D8
102
{ACAD_REACTORS
330
9D3
102
}
330
9D3
100
AcDbXrecord
340
1A
  0
XRECORD
  5
9DB
102
{ACAD_REACTORS
330
9D3
102
}
330
9D3
100
AcDbXrecord
 90
    10781
  0
XRECORD
  5
9D9
102
{ACAD_REACTORS
330
9D3
102
}
330
9D3
100
AcDbXrecord
340
19
  0
XRECORD
  5
9DA
102
{ACAD_REACTORS
330
9D3
102
}
330
9D3
100
AcDbXrecord
340
E
  0
XRECORD
  5
9E0
102
{ACAD_REACTORS
330
9D3
102
}
330
9D3
100
AcDbXrecord
 40
0.0
  0
XRECORD
  5
9E4
102
{ACAD_REACTORS
330
9D3
102
}
330
9D3
100
AcDbXrecord
340
0
  0
XRECORD
  5
9EA
102
{ACAD_REACTORS
330
9D3
102
}
330
9D3
100
AcDbXrecord
 10
0.0
 20
0.0
 30
0.0
  0
XRECORD
  5
9E6
102
{ACAD_REACTORS
330
9D3
102
}
330
9D3
100
AcDbXrecord
 10
0.0
 20
0.0
 30
0.0
  0
XRECORD
  5
9E9
102
{ACAD_REACTORS
330
9D3
102
}
330
9D3
100
AcDbXrecord
 10
0.0
 20
0.0
 30
0.0
  0
XRECORD
  5
9E7
102
{ACAD_REACTORS
330
9D3
102
}
330
9D3
100
AcDbXrecord
 10
0.0
 20
0.0
 30
0.0
  0
XRECORD
  5
9E8
102
{ACAD_REACTORS
330
9D3
102
}
330
9D3
100
AcDbXrecord
 10
0.0
 20
0.0
 30
0.0
  0
XRECORD
  5
9E5
102
{ACAD_REACTORS
330
9D3
102
}
330
9D3
100
AcDbXrecord
 10
0.0
 20
0.0
 30
0.0
  0
XRECORD
  5
9E2
102
{ACAD_REACTORS
330
9D3
102
}
330
9D3
100
AcDbXrecord
340
0
  0
XRECORD
  5
9E3
102
{ACAD_REACTORS
330
9D3
102
}
330
9D3
100
AcDbXrecord
 70
     0
  0
XRECORD
  5
9D7
102
{ACAD_REACTORS
330
9D3
102
}
330
9D3
100
AcDbXrecord
  1
モノクロ.ctb
  0
XRECORD
  5
9D4
102
{ACAD_REACTORS
330
9D3
102
}
330
9D3
100
AcDbXrecord
 90
        1
  0
XRECORD
  5
9D5
102
{ACAD_REACTORS
330
9D3
102
}
330
9D3
100
AcDbXrecord
 90
       70
  0
XRECORD
  5
9ED
102
{ACAD_REACTORS
330
9D3
102
}
330
9D3
100
AcDbXrecord
340
0
  0
XRECORD
  5
9F3
102
{ACAD_REACTORS
330
9D3
102
}
330
9D3
100
AcDbXrecord
 10
0.0
 20
0.0
 30
0.0
  0
XRECORD
  5
9EF
102
{ACAD_REACTORS
330
9D3
102
}
330
9D3
100
AcDbXrecord
 10
0.0
 20
0.0
 30
0.0
  0
XRECORD
  5
9F2
102
{ACAD_REACTORS
330
9D3
102
}
330
9D3
100
AcDbXrecord
 10
0.0
 20
0.0
 30
0.0
  0
XRECORD
  5
9F0
102
{ACAD_REACTORS
330
9D3
102
}
330
9D3
100
AcDbXrecord
 10
0.0
 20
0.0
 30
0.0
  0
XRECORD
  5
9F1
102
{ACAD_REACTORS
330
9D3
102
}
330
9D3
100
AcDbXrecord
 10
0.0
 20
0.0
 30
0.0
  0
XRECORD
  5
9EE
102
{ACAD_REACTORS
330
9D3
102
}
330
9D3
100
AcDbXrecord
 10
0.0
 20
0.0
 30
0.0
  0
XRECORD
  5
9EB
102
{ACAD_REACTORS
330
9D3
102
}
330
9D3
100
AcDbXrecord
340
0
  0
XRECORD
  5
9EC
102
{ACAD_REACTORS
330
9D3
102
}
330
9D3
100
AcDbXrecord
 70
     0
  0
XRECORD
  5
9DF
102
{ACAD_REACTORS
330
9D3
102
}
330
9D3
100
AcDbXrecord
  1
{03C8285B-9E38-41CF-B143-22CBBCCBC76A}
  0
DICTIONARYVAR
  5
5F
102
{ACAD_REACTORS
330
5E
102
}
330
5E
100
DictionaryVariables
280
     0
  1
2
  0
DICTIONARYVAR
  5
63
102
{ACAD_REACTORS
330
5E
102
}
330
5E
100
DictionaryVariables
280
     0
  1
1
  0
DICTIONARYVAR
  5
867
102
{ACAD_REACTORS
330
5E
102
}
330
5E
100
DictionaryVariables
280
     0
  1

  0
ENDSEC
  0
EOF
