  0
SECTION
  2
HEADER
  9
$ACADVER
  1
AC1009
  9
$INSBASE
 10
0
 20
0
 30
0
  9
$EXTMIN
 10
0
 20
0
  9
$EXTMAX
 10
17820
 20
12600
  9
$LIMMIN
 10
0
 20
0
  9
$LIMMAX
 10
17820
 20
12600
  9
$LTSCALE
 40
60
  0
ENDSEC
  0
SECTION
  2
TABLES
  0
TABLE
  2
LTYPE
 70
     9
  0
LTYPE
  2
CONTINUOUS
 70
    64
  3
実線
 72
    65
 73
     0
 40
0.0
  0
LTYPE
  2
DASHED1
 70
    64
  3
--  --  --  --  --  --  --  --  
 72
    65
 73
     2
 40
2.5
 49
1.25
 49
-1.25
  0
LTYPE
  2
DASHED2
 70
    64
  3
----    ----    ----    ----    
 72
    65
 73
     2
 40
5.0
 49
2.5
 49
-2.5
  0
LTYPE
  2
DASHED3
 70
    64
  3
------  ------  ------  ------  
 72
    65
 73
     2
 40
5.0
 49
3.75
 49
-1.25
  0
LTYPE
  2
CENTER1
 70
    64
  3
----- - ----- - ----- - ----- - 
 72
    65
 73
     4
 40
10.0
 49
6.25
 49
-1.25
 49
1.25
 49
-1.25
  0
LTYPE
  2
CENTER2
 70
    64
  3
----------  --  ----------  --  
 72
    65
 73
     4
 40
20.0
 49
12.5
 49
-2.5
 49
2.5
 49
-2.5
  0
LTYPE
  2
PHANTOM1
 70
    64
  3
--- - - --- - - --- - - --- - - 
 72
    65
 73
     6
 40
10.0
 49
3.25
 49
-1.25
 49
1.25
 49
-1.25
 49
1.25
 49
-1.25
  0
LTYPE
  2
PHANTOM2
 70
    64
  3
--------  -  -  --------  -  -  
 72
    65
 73
     6
 40
20.0
 49
10.0
 49
-2.5
 49
1.25
 49
-2.5
 49
1.25
 49
-2.5
  0
LTYPE
  2
DOT
 70
    64
  3
-   -   -   -   -   -   -   -   
 72
    65
 73
     2
 40
2.5
 49
0.625
 49
-1.875
  0
LTYPE
  2
DUMMY
 70
    64
  3
ダミー
 72
    65
 73
     0
 40
0.0
  0
LTYPE
  2
RAND1
 70
    64
  3
ランダム線1
 72
    65
 73
     4
 40
10.0
 49
1.0
 49
-2.0
 49
3.0
 49
-4.0
  0
LTYPE
  2
RAND2
 70
    64
  3
ランダム線2
 72
    65
 73
     4
 40
14.0
 49
2.0
 49
-3.0
 49
4.0
 49
-5.0
  0
LTYPE
  2
RAND3
 70
    64
  3
ランダム線3
 72
    65
 73
     4
 40
18.0
 49
3.0
 49
-4.0
 49
5.0
 49
-6.0
  0
LTYPE
  2
RAND4
 70
    64
  3
ランダム線4
 72
    65
 73
     4
 40
22.0
 49
4.0
 49
-5.0
 49
6.0
 49
-7.0
  0
LTYPE
  2
RAND5
 70
    64
  3
ランダム線5
 72
    65
 73
     4
 40
26.0
 49
5.0
 49
-6.0
 49
7.0
 49
-8.0
  0
LTYPE
  2
LONG1
 70
    64
  3
----------  --  ----------  --  
 72
    65
 73
     4
 40
40.0
 49
32.5
 49
-2.5
 49
2.5
 49
-2.5
  0
LTYPE
  2
LONG2
 70
    64
  3
--------  -  -  --------  -  -  
 72
    65
 73
     6
 40
40.0
 49
30.0
 49
-2.5
 49
1.25
 49
-2.5
 49
1.25
 49
-2.5
  0
LTYPE
  2
LONG3
 70
    64
  3
+++++++++++++++..+++++++++++++++
 72
    65
 73
     2
 40
40.0
 49
37.5
 49
-2.5
  0
LTYPE
  2
LONG4
 70
    64
  3
+++++++++++++++..+++++++++++++++
 72
    65
 73
     2
 40
80.0
 49
75.0
 49
-5.0
  0
LTYPE
  2
LONG5
 70
    64
  3
----------  --  ----------  --  
 72
    65
 73
     4
 40
60.0
 49
37.5
 49
-7.5
 49
7.5
 49
-7.5
  0
LTYPE
  2
dashed
 70
   64
  3
-------   -------------   ------
 72
   65
 73
    2
 40
7.5
 49
6
 49
-1.5
  0
LTYPE
  2
dashed_spaced
 70
   64
  3
----        --------        ----
 72
   65
 73
    2
 40
12
 49
6
 49
-6
  0
LTYPE
  2
long_dashed_dotted
 70
   64
  3
------------- --- --------------
 72
   65
 73
    4
 40
15.25
 49
12
 49
-1.5
 49
0.25
 49
-1.5
  0
LTYPE
  2
long_dashed_double-dotted
 70
   64
  3
----------- --- --- ------------
 72
   65
 73
    6
 40
17
 49
12
 49
-1.5
 49
0.25
 49
-1.5
 49
0.25
 49
-1.5
  0
LTYPE
  2
long_dashed_triplicate-dotted
 70
   64
  3
--------- --- --- --- ----------
 72
   65
 73
    8
 40
18.75
 49
12
 49
-1.5
 49
0.25
 49
-1.5
 49
0.25
 49
-1.5
 49
0.25
 49
-1.5
  0
LTYPE
  2
dotted
 70
   64
  3
   -       -       -       -    
 72
   65
 73
    2
 40
1.75
 49
0.25
 49
-1.5
  0
LTYPE
  2
chain
 70
   64
  3
-------------- -- --------------
 72
   65
 73
    4
 40
18.5
 49
12
 49
-1.5
 49
3.5
 49
-1.5
  0
LTYPE
  2
chain_double_dash
 70
   64
  3
------------ -- -- -------------
 72
   65
 73
    6
 40
23.5
 49
12
 49
-1.5
 49
3.5
 49
-1.5
 49
3.5
 49
-1.5
  0
LTYPE
  2
dashed_dotted
 70
   64
  3
-----------     -     ----------
 72
   65
 73
    4
 40
9.25
 49
6
 49
-1.5
 49
0.25
 49
-1.5
  0
LTYPE
  2
double-dashed_dotted
 70
   64
  3
------   -----------   -   -----
 72
   65
 73
    6
 40
16.75
 49
6
 49
-1.5
 49
6
 49
-1.5
 49
0.25
 49
-1.5
  0
LTYPE
  2
dashed_double-dotted
 70
   64
  3
---------    -    -    ---------
 72
   65
 73
    6
 40
11
 49
6
 49
-1.5
 49
0.25
 49
-1.5
 49
0.25
 49
-1.5
  0
LTYPE
  2
double-dashed_double-dotted
 70
   64
  3
-----   ---------   -   -   ----
 72
   65
 73
    8
 40
18.5
 49
6
 49
-1.5
 49
6
 49
-1.5
 49
0.25
 49
-1.5
 49
0.25
 49
-1.5
  0
LTYPE
  2
dashed_triplicate-dotted
 70
   64
  3
-------    -    -    -    ------
 72
   65
 73
    8
 40
12.75
 49
6
 49
-1.5
 49
0.25
 49
-1.5
 49
0.25
 49
-1.5
 49
0.25
 49
-1.5
  0
LTYPE
  2
double-dashed_triplicate-dotted
 70
   64
  3
-----  ---------  -  -  -  -----
 72
   65
 73
   10
 40
20.25
 49
6
 49
-1.5
 49
6
 49
-1.5
 49
0.25
 49
-1.5
 49
0.25
 49
-1.5
 49
0.25
 49
-1.5
  0
LTYPE
  2
undefined
 70
   64
  3
--------------------------------
 72
   65
 73
    0
 40
0
  0
ENDTAB
  0
TABLE
  2
STYLE
  5
3
100
AcDbSymbolTable
 70
     1
  0
STYLE
  5
10
100
AcDbSymbolTableRecord
100
AcDbTextStyleTableRecord
  2
STANDARD
 70
     0
 40
0.0
 41
1.0
 50
0.0
 71
     0
 42
0.2
  3
txt
  4
bigfont.shx
  0
STYLE
  5
26
100
AcDbSymbolTableRecord
100
AcDbTextStyleTableRecord
  2
TATEGAKI
 70
    68
 40
0.0
 41
1.0
 50
0.0
 71
     0
 42
1.0
  3
txt
  4
bigfont.shx
  0
ENDTAB
  0
TABLE
  2
LAYER
 70
    9
  0
LAYER
  2
_0-0_1
 70
   64
 62
    7
  6
CONTINUOUS
  0
LAYER
  2
_0-1_2
 70
   64
 62
    7
  6
CONTINUOUS
  0
LAYER
  2
_0-2_3
 70
   64
 62
    7
  6
CONTINUOUS
  0
LAYER
  2
_0-3_4
 70
   64
 62
    7
  6
CONTINUOUS
  0
LAYER
  2
_0-4_5
 70
   64
 62
    7
  6
CONTINUOUS
  0
LAYER
  2
_0-6_7
 70
   64
 62
    7
  6
CONTINUOUS
  0
LAYER
  2
_0-a_0
 70
   64
 62
    7
  6
CONTINUOUS
  0
LAYER
  2
_0-f_ADD_LINE
 70
   64
 62
    7
  6
CONTINUOUS
  0
LAYER
  2
ADD_LINE
 70
   64
 62
    7
  6
CONTINUOUS
  0
ENDTAB
  0
ENDSEC
  0
SECTION
  2
BLOCKS
  0
ENDSEC
  0
SECTION
  2
ENTITIES
  0
LINE
  8
_0-1_2
  6
CONTINUOUS
 62
    2
 10
14557.46364272042
 20
12365.711792041087
 11
3757.4636427203964
 21
12365.711792041087
  0
LINE
  8
_0-1_2
  6
CONTINUOUS
 62
    2
 10
14557.46364272042
 20
11765.711297161486
 11
3757.4636427203964
 21
11765.711297161486
  0
LINE
  8
ADD_LINE
  6
DOT
 62
    3
 10
14557.46364272042
 20
12365.711792041087
 11
14557.46364272042
 21
-2514.2887028385117
  0
LINE
  8
ADD_LINE
  6
DOT
 62
    3
 10
3757.4636427203964
 20
12365.711792041087
 11
3757.4636427203964
 21
-3714.2887028385148
  0
LINE
  8
_0-4_5
  6
CENTER2
 62
    1
 10
5123.0437230315893
 20
6698.6444483615887
 11
10123.043723031591
 21
6698.6444483615887
  0
LINE
  8
_0-0_1
  6
CONTINUOUS
 62
    7
 10
6878.0437230315893
 20
7948.6444483616888
 11
9578.0437230315893
 21
7948.6444483616888
  0
LINE
  8
_0-0_1
  6
CONTINUOUS
 62
    7
 10
6878.0437230315711
 20
5448.6444483616378
 11
9578.0437230315893
 21
5448.6444483616278
  0
LINE
  8
_0-4_5
  6
CENTER2
 62
    1
 10
6023.0437230315893
 20
7834.036196888188
 11
6023.0437230315893
 21
5670.3642911907164
  0
CIRCLE
  8
_0-0_1
  6
CONTINUOUS
 62
    7
 10
6023.0437230315893
 20
6698.6444483616879
 40
900.00000000000205
  0
CIRCLE
  8
_0-0_1
  6
CONTINUOUS
 62
    7
 10
7773.0437230315911
 20
6698.6444483616879
 40
900.00000000000205
  0
LINE
  8
_0-0_1
  6
CONTINUOUS
 62
    7
 10
6878.0437230315802
 20
7698.6444483615887
 11
9578.0437230315893
 21
7698.6444483615887
  0
LINE
  8
_0-0_1
  6
CONTINUOUS
 62
    7
 10
6878.0437230315893
 20
5698.6444483616369
 11
9578.0437230315893
 21
5698.6444483616369
  0
LINE
  8
_0-0_1
  6
CONTINUOUS
 62
    7
 10
6878.0437230315802
 20
7698.6444483615887
 11
6878.0437230315893
 21
7948.6444483616888
  0
LINE
  8
_0-0_1
  6
CONTINUOUS
 62
    7
 10
6878.0437230315711
 20
5448.6444483616378
 11
6878.0437230315893
 21
5698.6444483616369
  0
LINE
  8
_0-0_1
  6
CONTINUOUS
 62
    7
 10
9578.0437230315893
 20
7948.6444483616888
 11
9578.0437230315893
 21
5448.6444483616278
  0
LINE
  8
_0-0_1
  6
CONTINUOUS
 62
    7
 10
9028.0437230315911
 20
7948.6444483616888
 11
9028.0437230315911
 21
5448.6444483616278
  0
LINE
  8
_0-0_1
  6
CONTINUOUS
 62
    7
 10
9478.0437230315911
 20
7948.6444483616888
 11
9478.0437230315911
 21
5448.6444483616278
  0
LINE
  8
_0-0_1
  6
CONTINUOUS
 62
    7
 10
9253.0437230315911
 20
7948.6444483616888
 11
9253.0437230315911
 21
5448.6444483616278
  0
LINE
  8
_0-0_1
  6
CONTINUOUS
 62
    7
 10
9578.0437230316002
 20
1172.5685479032277
 11
6873.0437230315911
 21
1172.5685479032277
  0
LINE
  8
_0-4_5
  6
CENTER2
 62
    1
 10
7773.0437230315911
 20
797.56854790322768
 11
7773.0437230315911
 21
7598.6444483616879
  0
LINE
  8
_0-0_1
  6
CONTINUOUS
 62
    7
 10
8673.0437230315911
 20
3022.5685479032281
 11
8673.0437230315911
 21
797.56854790322768
  0
LINE
  8
_0-0_1
  6
CONTINUOUS
 62
    7
 10
6873.0437230315911
 20
797.56854790322768
 11
6873.0437230315911
 21
3022.5685479032281
  0
LINE
  8
_0-0_1
  6
CONTINUOUS
 62
    7
 10
9028.0437230315983
 20
3172.5685479032281
 11
9478.0437230315911
 21
3172.5685479032281
  0
LINE
  8
_0-0_1
  6
CONTINUOUS
 62
    7
 10
9578.0437230315893
 20
1477.5685479032281
 11
9578.0437230315893
 21
1172.5685479032277
  0
LINE
  8
_0-0_1
  6
CONTINUOUS
 62
    7
 10
9028.0437230315911
 20
3747.5685479032281
 11
9028.0437230315911
 21
1477.5685479032281
  0
LINE
  8
_0-0_1
  6
CONTINUOUS
 62
    7
 10
7673.0437230315802
 20
3972.5685479032263
 11
7873.0437230315902
 21
3972.5685479032177
  0
LINE
  8
_0-0_1
  6
CONTINUOUS
 62
    7
 10
7673.0437230315702
 20
3772.5685479032272
 11
7848.0437230316011
 21
3772.5685479032086
  0
LINE
  8
_0-0_1
  6
CONTINUOUS
 62
    7
 10
7673.0437230315702
 20
3772.5685479032272
 11
7673.0437230315802
 21
3972.5685479032263
  0
LINE
  8
_0-0_1
  6
CONTINUOUS
 62
    7
 10
7873.0437230315902
 20
3919.1750066458571
 11
7873.0437230315702
 21
3847.5685479032086
  0
LINE
  8
_0-0_1
  6
CONTINUOUS
 62
    7
 10
7873.0437230315702
 20
3847.5685479032086
 11
7849.0794957886292
 21
3847.5685479032272
  0
LINE
  8
_0-0_1
  6
CONTINUOUS
 62
    7
 10
7173.0437230315802
 20
3672.5685479032281
 11
8373.043723031602
 21
3672.5685479032281
  0
LINE
  8
_0-0_1
  6
CONTINUOUS
 62
    7
 10
8373.043723031602
 20
3672.5685479032281
 11
8373.0437230315911
 21
3422.5685479032277
  0
LINE
  8
_0-0_1
  6
CONTINUOUS
 62
    7
 10
6873.0437230315911
 20
3022.5685479032281
 11
8673.0437230315911
 21
3022.5685479032281
  0
LINE
  8
_0-0_1
  6
CONTINUOUS
 62
    7
 10
6873.0437230315911
 20
1447.5685479032281
 11
9578.0437230315893
 21
1447.5685479032281
  0
LINE
  8
_0-0_1
  6
CONTINUOUS
 62
    7
 10
8823.043723031602
 20
1477.5685479032281
 11
8823.0437230315911
 21
1447.5685479032281
  0
LINE
  8
_0-0_1
  6
CONTINUOUS
 62
    7
 10
8823.043723031602
 20
1477.5685479032281
 11
9578.0437230315893
 21
1477.5685479032281
  0
LINE
  8
_0-0_1
  6
CONTINUOUS
 62
    7
 10
8748.0437230315401
 20
3672.5685479032281
 11
9028.0437230315983
 21
3672.5685479032281
  0
LINE
  8
_0-0_1
  6
CONTINUOUS
 62
    7
 10
8778.043723031602
 20
3747.5685479032281
 11
9028.0437230315911
 21
3747.5685479032281
  0
LINE
  8
_0-0_1
  6
CONTINUOUS
 62
    7
 10
8748.0437230315802
 20
2922.5685479032177
 11
8898.0437230315802
 21
2922.5685479032072
  0
LINE
  8
_0-0_1
  6
CONTINUOUS
 62
    7
 10
8778.043723031602
 20
3747.5685479032281
 11
8778.043723031602
 21
3672.5685479032281
  0
LINE
  8
_0-0_1
  6
CONTINUOUS
 62
    7
 10
8978.0437230316002
 20
1597.5685479032179
 11
8978.0437230315893
 21
3672.5685479032281
  0
LINE
  8
_0-0_1
  6
CONTINUOUS
 62
    7
 10
8873.0437230315893
 20
2922.5685479032281
 11
8873.0437230315893
 21
1597.5685479032384
  0
LINE
  8
_0-0_1
  6
CONTINUOUS
 62
    7
 10
8823.0437230315911
 20
1597.5685479032281
 11
8978.0437230316002
 21
1597.5685479032179
  0
LINE
  8
_0-0_1
  6
CONTINUOUS
 62
    7
 10
9228.0437230315911
 20
3322.5685479032581
 11
9228.0437230315911
 21
3172.5685479032281
  0
LINE
  8
_0-0_1
  6
CONTINUOUS
 62
    7
 10
9028.0437230315983
 20
3322.5685479032281
 11
9228.0437230315911
 21
3322.5685479032581
  0
LINE
  8
_0-0_1
  6
CONTINUOUS
 62
    7
 10
6873.0437230315911
 20
2972.5685479032277
 11
8673.0437230315911
 21
2972.5685479032277
  0
LINE
  8
_0-0_1
  6
CONTINUOUS
 62
    7
 10
6873.0437230315911
 20
2822.5685479032277
 11
8673.0437230315911
 21
2822.5685479032277
  0
LINE
  8
_0-0_1
  6
CONTINUOUS
 62
    7
 10
8748.0437230315401
 20
3672.5685479032281
 11
8748.0437230315802
 21
2922.5685479032177
  0
LINE
  8
_0-0_1
  6
CONTINUOUS
 62
    7
 10
8898.0437230315401
 20
3672.5685479032281
 11
8898.0437230315802
 21
2922.5685479032072
  0
LINE
  8
_0-0_1
  6
CONTINUOUS
 62
    7
 10
9478.0437230315911
 20
3172.5685479032281
 11
9478.0437230315911
 21
1477.5685479032281
  0
LINE
  8
_0-0_1
  6
CONTINUOUS
 62
    7
 10
9253.0437230315911
 20
3172.5685479032181
 11
9253.0437230315911
 21
1477.5685479032281
  0
LINE
  8
_0-0_1
  6
CONTINUOUS
 62
    7
 10
8823.0437230315911
 20
1597.5685479032281
 11
8823.0437230315911
 21
2922.5685479032281
  0
LINE
  8
_0-0_1
  6
CONTINUOUS
 62
    7
 10
7873.0437230315902
 20
3972.5685479032177
 11
7873.0437230315902
 21
3896.9633989182871
  0
LINE
  8
_0-0_1
  6
CONTINUOUS
 62
    7
 10
7848.0437230316011
 20
3772.5685479032086
 11
7848.0437230315802
 21
3847.5685479032086
  0
LINE
  8
_0-0_1
  6
CONTINUOUS
 62
    7
 10
7832.0941487028404
 20
3912.6421808436385
 11
7952.2981434638095
 21
3912.6421808436385
  0
LINE
  8
_0-0_1
  6
CONTINUOUS
 62
    7
 10
7123.0437230315902
 20
3372.5685479032281
 11
8423.0437230315802
 21
3372.5685479032281
  0
LINE
  8
_0-0_1
  6
CONTINUOUS
 62
    7
 10
7123.0437230315902
 20
3285.0685479032281
 11
8423.0437230315802
 21
3285.0685479032281
  0
LINE
  8
_0-0_1
  6
CONTINUOUS
 62
    7
 10
7123.0437230315902
 20
3197.5685479032172
 11
8423.0437230315802
 21
3197.5685479032277
  0
LINE
  8
_0-0_1
  6
CONTINUOUS
 62
    7
 10
7123.0437230315902
 20
3110.0685479032281
 11
8423.0437230315802
 21
3110.0685479032281
  0
LINE
  8
_0-0_1
  6
CONTINUOUS
 62
    7
 10
8073.0437230315911
 20
3052.5685479032281
 11
8748.0437230315711
 21
3052.5685479032377
  0
LINE
  8
_0-0_1
  6
CONTINUOUS
 62
    7
 10
8748.0437230315492
 20
3422.5685479032172
 11
8073.0437230315911
 21
3422.5685479032377
  0
LINE
  8
_0-0_1
  6
CONTINUOUS
 62
    7
 10
7273.0437230315902
 20
3022.5685479032281
 11
7273.0437230315902
 21
3110.0685479032281
  0
LINE
  8
_0-0_1
  6
CONTINUOUS
 62
    7
 10
8673.0437230315911
 20
797.56854790322768
 11
6873.0437230315911
 21
797.56854790322768
  0
ARC
  8
_0-0_1
  6
CONTINUOUS
 62
    7
 10
6954.8619048497694
 20
797.56854790322768
 40
81.818181818181998
 50
180
 51
0
  0
ARC
  8
_0-0_1
  6
CONTINUOUS
 62
    7
 10
7282.1346321224992
 20
797.56854790322768
 40
81.818181818181998
 50
180
 51
0
  0
ARC
  8
_0-0_1
  6
CONTINUOUS
 62
    7
 10
7609.4073593952207
 20
797.56854790322768
 40
81.818181818181998
 50
180
 51
0
  0
ARC
  8
_0-0_1
  6
CONTINUOUS
 62
    7
 10
7936.6800866679505
 20
797.56854790322768
 40
81.818181818181998
 50
180
 51
0
  0
ARC
  8
_0-0_1
  6
CONTINUOUS
 62
    7
 10
8263.9528139406812
 20
797.56854790322768
 40
81.818181818181998
 50
180
 51
0
  0
ARC
  8
_0-0_1
  6
CONTINUOUS
 62
    7
 10
8591.2255412134109
 20
797.56854790322768
 40
81.818181818180307
 50
180
 51
0
  0
ARC
  8
_0-0_1
  6
CONTINUOUS
 62
    7
 10
7773.0437230315911
 20
797.56854790322768
 40
81.818181818181998
 50
0
 51
180
  0
ARC
  8
_0-0_1
  6
CONTINUOUS
 62
    7
 10
7445.7709957588604
 20
797.56854790322768
 40
81.818181818181998
 50
0
 51
180
  0
ARC
  8
_0-0_1
  6
CONTINUOUS
 62
    7
 10
7118.4982684861307
 20
797.56854790322768
 40
81.818181818181998
 50
0
 51
180
  0
ARC
  8
_0-0_1
  6
CONTINUOUS
 62
    7
 10
8100.3164503043208
 20
797.56854790322768
 40
81.818181818181998
 50
0
 51
180
  0
ARC
  8
_0-0_1
  6
CONTINUOUS
 62
    7
 10
8427.5891775770397
 20
797.56854790322768
 40
81.8181818181816
 50
0
 51
180
  0
LINE
  8
_0-0_1
  6
CONTINUOUS
 62
    7
 10
9028.0437230315911
 20
7173.6444483615887
 11
9578.0437230315893
 21
7173.6444483615887
  0
LINE
  8
_0-0_1
  6
CONTINUOUS
 62
    7
 10
9578.0437230315893
 20
6223.6444483616888
 11
9028.0437230315911
 21
6223.6444483616888
  0
LINE
  8
_0-0_1
  6
CONTINUOUS
 62
    7
 10
8703.043723031602
 20
6198.6444483615887
 11
8703.0437230315911
 21
7198.6444483616888
  0
LINE
  8
_0-0_1
  6
CONTINUOUS
 62
    7
 10
8828.0437230315802
 20
7123.6444483616888
 11
8329.2586095637416
 21
7123.6444483615878
  0
LINE
  8
_0-0_1
  6
CONTINUOUS
 62
    7
 10
8828.0437230315802
 20
6273.6444483616888
 11
8329.2586095636798
 21
6273.6444483615887
  0
LINE
  8
_0-0_1
  6
CONTINUOUS
 62
    7
 10
8703.0437230315911
 20
7198.6444483616888
 11
8878.0437230316402
 21
7198.6444483616888
  0
LINE
  8
_0-0_1
  6
CONTINUOUS
 62
    7
 10
8878.0437230315983
 20
6198.6444483615887
 11
8703.043723031602
 21
6198.6444483615887
  0
LINE
  8
_0-0_1
  6
CONTINUOUS
 62
    7
 10
8878.0437230316293
 20
6323.6444483616879
 11
8878.0437230315983
 21
6198.6444483615887
  0
LINE
  8
_0-0_1
  6
CONTINUOUS
 62
    7
 10
8878.0437230316402
 20
7198.6444483616888
 11
8878.0437230316911
 21
7073.6444483616879
  0
LINE
  8
_0-0_1
  6
CONTINUOUS
 62
    7
 10
8830.30993128306
 20
7023.6444483615887
 11
8948.0437230315893
 21
7023.6444483615887
  0
LINE
  8
_0-0_1
  6
CONTINUOUS
 62
    7
 10
8948.0437230315802
 20
6373.6444483616888
 11
8843.3755828875092
 21
6373.6444483616888
  0
LINE
  8
_0-0_1
  6
CONTINUOUS
 62
    7
 10
8828.0437230315893
 20
7123.6444483616888
 11
8828.0437230315802
 21
6273.6444483616888
  0
LINE
  8
_0-0_1
  6
CONTINUOUS
 62
    7
 10
8765.5437230315911
 20
7123.6444483616888
 11
8765.5437230315911
 21
6273.6444483616888
  0
LINE
  8
_0-0_1
  6
CONTINUOUS
 62
    7
 10
8830.30993128306
 20
7073.6444483615887
 11
8878.0437230316911
 21
7073.6444483616879
  0
LINE
  8
_0-0_1
  6
CONTINUOUS
 62
    7
 10
8878.0437230316293
 20
6323.6444483616879
 11
8843.3755828875092
 21
6323.6444483616879
  0
LINE
  8
_0-0_1
  6
CONTINUOUS
 62
    7
 10
8948.0437230316002
 20
7123.6444483615878
 11
9028.0437230315911
 21
7123.6444483616888
  0
LINE
  8
_0-0_1
  6
CONTINUOUS
 62
    7
 10
8948.0437230315893
 20
6273.6444483616888
 11
9028.0437230315911
 21
6273.6444483616888
  0
LINE
  8
_0-0_1
  6
CONTINUOUS
 62
    7
 10
8948.0437230315893
 20
6273.6444483616888
 11
8948.0437230316002
 21
7123.6444483615878
  0
CIRCLE
  8
_0-0_1
  6
CONTINUOUS
 62
    7
 10
7773.0437230315911
 20
6698.6444483616879
 40
100
  0
CIRCLE
  8
_0-0_1
  6
CONTINUOUS
 62
    7
 10
7773.0437230315911
 20
6698.6444483616879
 40
225
  0
CIRCLE
  8
_0-3_4
  6
CENTER1
 62
    1
 10
7773.0437230315911
 20
6698.6444483616879
 40
446.18302831047799
  0
CIRCLE
  8
_0-3_4
  6
CENTER1
 62
    1
 10
7773.0437230315911
 20
6698.6444483616879
 40
25
  0
LINE
  8
_0-3_4
  6
CENTER1
 62
    1
 10
7300.0353453988009
 20
6971.7359625168874
 11
8246.0521006643812
 21
6425.5529342063874
  0
LINE
  8
_0-3_4
  6
CENTER1
 62
    1
 10
7499.9522088763497
 20
7171.6528259943871
 11
8046.1352371868315
 21
6225.6360707288877
  0
LINE
  8
_0-3_4
  6
CENTER1
 62
    1
 10
7499.9522088763497
 20
6225.6360707288877
 11
8046.1352371868397
 21
7171.6528259943871
  0
LINE
  8
_0-3_4
  6
CENTER1
 62
    1
 10
7300.0353453988009
 20
6425.5529342063874
 11
8246.0521006643812
 21
6971.7359625168874
  0
LINE
  8
_0-2_3
  6
CONTINUOUS
 62
    3
 10
7680.0437230315902
 20
7045.7251734654874
 11
7580.4925714282808
 21
7218.152825994488
  0
LINE
  8
_0-2_3
  6
CONTINUOUS
 62
    3
 10
7518.9629979276806
 20
6952.7251734654865
 11
7419.4118463244004
 21
7125.1528259943871
  0
LINE
  8
_0-2_3
  6
CONTINUOUS
 62
    3
 10
7518.9629979276806
 20
6952.7251734654865
 11
7346.5353453987909
 21
7052.2763250687867
  0
LINE
  8
_0-2_3
  6
CONTINUOUS
 62
    3
 10
7425.9629979276797
 20
6791.6444483615878
 11
7253.53534539879
 21
6891.1955999648862
  0
LINE
  8
_0-2_3
  6
CONTINUOUS
 62
    3
 10
7425.9629979276797
 20
6791.6444483615878
 11
7226.8606947211001
 21
6791.6444483615878
  0
LINE
  8
_0-2_3
  6
CONTINUOUS
 62
    3
 10
7425.9629979276797
 20
6605.6444483615887
 11
7226.8606947211101
 21
6605.6444483615887
  0
LINE
  8
_0-2_3
  6
CONTINUOUS
 62
    3
 10
7425.9629979276797
 20
6605.6444483615887
 11
7253.53534539881
 21
6506.0932967583885
  0
LINE
  8
_0-2_3
  6
CONTINUOUS
 62
    3
 10
7518.9629979276806
 20
6444.5637232576883
 11
7346.53534539881
 21
6345.012571654388
  0
LINE
  8
_0-2_3
  6
CONTINUOUS
 62
    3
 10
7518.9629979276806
 20
6444.5637232576883
 11
7419.4118463244004
 21
6272.1360707288877
  0
LINE
  8
_0-2_3
  6
CONTINUOUS
 62
    3
 10
7680.0437230315902
 20
6351.5637232576873
 11
7580.4925714283108
 21
6179.1360707288877
  0
LINE
  8
_0-2_3
  6
CONTINUOUS
 62
    3
 10
7680.0437230315902
 20
6351.5637232576873
 11
7680.0437230315592
 21
6152.4614200510869
  0
LINE
  8
_0-2_3
  6
CONTINUOUS
 62
    3
 10
7866.0437230315902
 20
6351.5637232576873
 11
7866.0437230315902
 21
6152.4614200511878
  0
LINE
  8
_0-2_3
  6
CONTINUOUS
 62
    3
 10
7866.0437230315902
 20
6351.5637232576873
 11
7965.5948746348713
 21
6179.1360707287868
  0
LINE
  8
_0-2_3
  6
CONTINUOUS
 62
    3
 10
8027.1244481354915
 20
6444.5637232576883
 11
8126.6755997387818
 21
6272.1360707288877
  0
LINE
  8
_0-2_3
  6
CONTINUOUS
 62
    3
 10
8027.1244481354915
 20
6444.5637232576883
 11
8199.5521006643594
 21
6345.012571654388
  0
LINE
  8
_0-2_3
  6
CONTINUOUS
 62
    3
 10
8120.1244481354906
 20
6605.6444483615887
 11
8292.5521006643594
 21
6506.0932967583885
  0
LINE
  8
_0-2_3
  6
CONTINUOUS
 62
    3
 10
8120.1244481354906
 20
6605.6444483615887
 11
8319.2267513420393
 21
6605.6444483615887
  0
LINE
  8
_0-2_3
  6
CONTINUOUS
 62
    3
 10
8120.1244481354906
 20
6791.6444483615878
 11
8319.2267513420884
 21
6791.6444483615878
  0
LINE
  8
_0-2_3
  6
CONTINUOUS
 62
    3
 10
8120.1244481354906
 20
6791.6444483615878
 11
8292.5521006643903
 21
6891.1955999648862
  0
LINE
  8
_0-2_3
  6
CONTINUOUS
 62
    3
 10
8027.1244481354915
 20
6952.7251734654865
 11
8199.5521006643503
 21
7052.2763250687867
  0
LINE
  8
_0-2_3
  6
CONTINUOUS
 62
    3
 10
8027.1244481354915
 20
6952.7251734654865
 11
8126.6755997388
 21
7125.1528259943871
  0
LINE
  8
_0-2_3
  6
CONTINUOUS
 62
    3
 10
7866.0437230315902
 20
7045.7251734654874
 11
7965.5948746348713
 21
7218.152825994388
  0
LINE
  8
_0-2_3
  6
CONTINUOUS
 62
    3
 10
7680.0437230315902
 20
7045.7251734654874
 11
7680.0437230316002
 21
7244.8274766720879
  0
LINE
  8
_0-2_3
  6
CONTINUOUS
 62
    3
 10
7866.0437230315902
 20
7045.7251734654874
 11
7866.0437230316102
 21
7244.8274766720879
  0
LINE
  8
_0-2_3
  6
CONTINUOUS
 62
    3
 10
7680.0437230315592
 20
6152.4614200510869
 11
7866.0437230315902
 21
6152.4614200511878
  0
CIRCLE
  8
_0-0_1
  6
CONTINUOUS
 62
    7
 10
7773.0437230315911
 20
6252.4614200511869
 40
93.514900902639795
  0
CIRCLE
  8
_0-0_1
  6
CONTINUOUS
 62
    7
 10
7996.1352371868288
 20
6312.2386111072874
 40
93.514900902639795
  0
CIRCLE
  8
_0-0_1
  6
CONTINUOUS
 62
    7
 10
8159.4495602859297
 20
6475.5529342063865
 40
93.514900902639795
  0
CIRCLE
  8
_0-0_1
  6
CONTINUOUS
 62
    7
 10
8219.2267513420702
 20
6698.6444483615887
 40
93.514900902639795
  0
CIRCLE
  8
_0-0_1
  6
CONTINUOUS
 62
    7
 10
8159.4495602859397
 20
6921.7359625168883
 40
93.514900902639795
  0
CIRCLE
  8
_0-0_1
  6
CONTINUOUS
 62
    7
 10
7996.1352371868288
 20
7085.0502856159874
 40
93.514900902639795
  0
CIRCLE
  8
_0-0_1
  6
CONTINUOUS
 62
    7
 10
7773.0437230315911
 20
7144.8274766720879
 40
93.514900902639795
  0
CIRCLE
  8
_0-0_1
  6
CONTINUOUS
 62
    7
 10
7549.9522088763506
 20
7085.0502856159874
 40
93.514900902639795
  0
CIRCLE
  8
_0-0_1
  6
CONTINUOUS
 62
    7
 10
7386.6378857772397
 20
6921.7359625168883
 40
93.514900902639795
  0
CIRCLE
  8
_0-0_1
  6
CONTINUOUS
 62
    7
 10
7326.8606947211101
 20
6698.6444483615887
 40
93.514900902639795
  0
CIRCLE
  8
_0-0_1
  6
CONTINUOUS
 62
    7
 10
7386.6378857772397
 20
6475.5529342063865
 40
93.514900902639795
  0
CIRCLE
  8
_0-0_1
  6
CONTINUOUS
 62
    7
 10
7549.9522088763506
 20
6312.2386111072874
 40
93.514900902639795
  0
LINE
  8
_0-2_3
  6
CONTINUOUS
 62
    3
 10
7346.5353453987909
 20
7052.2763250687867
 11
7253.53534539879
 21
6891.1955999648862
  0
LINE
  8
_0-2_3
  6
CONTINUOUS
 62
    3
 10
7226.8606947211001
 20
6791.6444483615878
 11
7226.8606947211101
 21
6605.6444483615887
  0
LINE
  8
_0-2_3
  6
CONTINUOUS
 62
    3
 10
7253.53534539881
 20
6506.0932967583885
 11
7346.53534539881
 21
6345.012571654388
  0
LINE
  8
_0-2_3
  6
CONTINUOUS
 62
    3
 10
7419.4118463244004
 20
6272.1360707288877
 11
7580.4925714283108
 21
6179.1360707288877
  0
LINE
  8
_0-2_3
  6
CONTINUOUS
 62
    3
 10
7965.5948746348713
 20
6179.1360707287868
 11
8126.6755997387818
 21
6272.1360707288877
  0
LINE
  8
_0-2_3
  6
CONTINUOUS
 62
    3
 10
8199.5521006643594
 20
6345.012571654388
 11
8292.5521006643594
 21
6506.0932967583885
  0
LINE
  8
_0-2_3
  6
CONTINUOUS
 62
    3
 10
8319.2267513420393
 20
6605.6444483615887
 11
8319.2267513420884
 21
6791.6444483615878
  0
LINE
  8
_0-2_3
  6
CONTINUOUS
 62
    3
 10
8292.5521006643903
 20
6891.1955999648862
 11
8199.5521006643503
 21
7052.2763250687867
  0
LINE
  8
_0-2_3
  6
CONTINUOUS
 62
    3
 10
8126.6755997388
 20
7125.1528259943871
 11
7965.5948746348713
 21
7218.152825994388
  0
LINE
  8
_0-2_3
  6
CONTINUOUS
 62
    3
 10
7866.0437230316102
 20
7244.8274766720879
 11
7680.0437230316002
 21
7244.8274766720879
  0
LINE
  8
_0-2_3
  6
CONTINUOUS
 62
    3
 10
7580.4925714282808
 20
7218.152825994488
 11
7419.4118463244004
 21
7125.1528259943871
  0
LINE
  8
_0-0_1
  6
CONTINUOUS
 62
    7
 10
8046.1352371867806
 20
7171.652825994488
 11
8281.0144937994301
 21
7171.652825994488
  0
LINE
  8
_0-0_1
  6
CONTINUOUS
 62
    7
 10
8046.1352371868315
 20
6225.6360707288877
 11
8281.0144937994683
 21
6225.6360707288877
  0
LINE
  8
_0-0_1
  6
CONTINUOUS
 62
    7
 10
8329.2586095637416
 20
7123.6444483615878
 11
8281.0144937994301
 21
7171.652825994488
  0
LINE
  8
_0-0_1
  6
CONTINUOUS
 62
    7
 10
8329.2586095636798
 20
6273.6444483615887
 11
8281.0144937994683
 21
6225.6360707288877
  0
LINE
  8
_0-0_1
  6
CONTINUOUS
 62
    7
 10
8078.0437230315893
 20
7698.6444483615887
 11
9028.0437230315911
 21
7173.6444483615887
  0
LINE
  8
_0-0_1
  6
CONTINUOUS
 62
    7
 10
9028.0437230315911
 20
6223.6444483615878
 11
8078.0437230315893
 21
5698.6444483616287
  0
LINE
  8
_0-0_1
  6
CONTINUOUS
 62
    7
 10
9028.0437230315911
 20
5938.0090095972873
 11
8594.9078503195196
 21
5698.6444483616369
  0
LINE
  8
_0-0_1
  6
CONTINUOUS
 62
    7
 10
8594.9078503194887
 20
7698.6444483615887
 11
9028.0437230315911
 21
7459.2798871259874
  0
LINE
  8
_0-0_1
  6
CONTINUOUS
 62
    7
 10
12806.49749063148
 20
12365.711792041087
 11
12806.497490631489
 21
11765.711297161486
  0
TEXT
  8
_0-6_7
 62
    7
 10
10807.632980971979
 20
9253.1864440025875
 40
150
 41
1
 50
0
  1
斜坑発進の場合は立杭の大きさ
  0
TEXT
  8
_0-6_7
 62
    7
 10
10807.632980971979
 20
9031.1864440025856
 40
150
 41
1
 50
0
  1
3500巾×5000長さ以上は必要となります
  0
TEXT
  8
_0-6_7
 62
    7
 10
5192.9046898638426
 20
10703.328290468984
 40
210
 41
1.05714285714286
 50
0
  1
ベビーモールＫＹＴ－１００２００斜坑台据付図
  0
LINE
  8
_0-a_0
  6
CONTINUOUS
 62
    7
 10
5123.0437230315893
 20
8448.6444483615887
 11
10123.043723031591
 21
8448.6444483615887
  0
LINE
  8
_0-a_0
  6
CONTINUOUS
 62
    7
 10
10123.043723031591
 20
8448.6444483615887
 11
10123.043723031591
 21
4948.6444483616369
  0
LINE
  8
_0-a_0
  6
CONTINUOUS
 62
    7
 10
10123.043723031591
 20
4948.6444483616369
 11
5123.0437230315893
 21
4948.6444483616369
  0
LINE
  8
_0-a_0
  6
CONTINUOUS
 62
    7
 10
5123.0437230315893
 20
4948.6444483616369
 11
5123.0437230315893
 21
8448.6444483615887
  0
LINE
  8
_0-a_0
  6
CONTINUOUS
 62
    7
 10
7173.0437230315911
 20
3197.5685479032277
 11
7173.0437230315911
 21
3285.0685479032281
  0
LINE
  8
_0-a_0
  6
CONTINUOUS
 62
    7
 10
7173.0437230315911
 20
3372.5685479032177
 11
7173.0437230315802
 21
3672.5685479032281
  0
LINE
  8
_0-a_0
  6
CONTINUOUS
 62
    7
 10
7123.0437230315902
 20
3110.0685479032281
 11
7123.0437230315902
 21
3197.5685479032277
  0
LINE
  8
_0-a_0
  6
CONTINUOUS
 62
    7
 10
7123.0437230315902
 20
3285.0685479032181
 11
7123.0437230315902
 21
3372.5685479032281
  0
LINE
  8
_0-a_0
  6
CONTINUOUS
 62
    7
 10
8423.0437230315802
 20
3372.5685479032281
 11
8423.0437230315802
 21
3285.0685479032281
  0
LINE
  8
_0-a_0
  6
CONTINUOUS
 62
    7
 10
8423.0437230315802
 20
3197.5685479032277
 11
8423.0437230315802
 21
3110.0685479032281
  0
LINE
  8
_0-a_0
  6
CONTINUOUS
 62
    7
 10
8073.0437230315911
 20
3422.5685479032377
 11
8073.0437230315911
 21
3372.5685479032281
  0
LINE
  8
_0-a_0
  6
CONTINUOUS
 62
    7
 10
8073.0437230315911
 20
3110.0685479032281
 11
8073.0437230315911
 21
3052.5685479032281
  0
LINE
  8
_0-a_0
  6
CONTINUOUS
 62
    3
 10
7680.0437230315902
 20
7045.7251734654874
 11
7518.9629979276806
 21
6952.7251734654865
  0
LINE
  8
_0-a_0
  6
CONTINUOUS
 62
    3
 10
7518.9629979276806
 20
6952.7251734654865
 11
7425.9629979276797
 21
6791.6444483615878
  0
LINE
  8
_0-a_0
  6
CONTINUOUS
 62
    3
 10
7425.9629979276797
 20
6791.6444483615878
 11
7425.9629979276797
 21
6605.6444483615887
  0
LINE
  8
_0-a_0
  6
CONTINUOUS
 62
    3
 10
7425.9629979276797
 20
6605.6444483615887
 11
7518.9629979276806
 21
6444.5637232576883
  0
LINE
  8
_0-a_0
  6
CONTINUOUS
 62
    3
 10
7518.9629979276806
 20
6444.5637232576883
 11
7680.0437230315902
 21
6351.5637232576873
  0
LINE
  8
_0-a_0
  6
CONTINUOUS
 62
    3
 10
7680.0437230315902
 20
6351.5637232576873
 11
7866.0437230315902
 21
6351.5637232576873
  0
LINE
  8
_0-a_0
  6
CONTINUOUS
 62
    3
 10
7866.0437230315902
 20
6351.5637232576873
 11
8027.1244481354915
 21
6444.5637232576883
  0
LINE
  8
_0-a_0
  6
CONTINUOUS
 62
    3
 10
8027.1244481354915
 20
6444.5637232576883
 11
8120.1244481354906
 21
6605.6444483615887
  0
LINE
  8
_0-a_0
  6
CONTINUOUS
 62
    3
 10
8120.1244481354906
 20
6605.6444483615887
 11
8120.1244481354906
 21
6791.6444483615878
  0
LINE
  8
_0-a_0
  6
CONTINUOUS
 62
    3
 10
8120.1244481354906
 20
6791.6444483615878
 11
8027.1244481354915
 21
6952.7251734654865
  0
LINE
  8
_0-a_0
  6
CONTINUOUS
 62
    3
 10
8027.1244481354915
 20
6952.7251734654865
 11
7866.0437230315902
 21
7045.7251734654874
  0
LINE
  8
_0-a_0
  6
CONTINUOUS
 62
    3
 10
7866.0437230315902
 20
7045.7251734654874
 11
7680.0437230315902
 21
7045.7251734654874
  0
LINE
  8
_0-a_0
  6
CONTINUOUS
 62
    3
 10
7519.2675144369505
 20
7319.7172242943861
 11
7154.4320735580905
 21
6958.362341832988
  0
LINE
  8
_0-a_0
  6
CONTINUOUS
 62
    3
 10
8032.7616165029403
 20
7317.2560978351876
 11
7519.2675144369505
 21
7319.7172242943861
  0
LINE
  8
_0-a_0
  6
CONTINUOUS
 62
    3
 10
8394.1164989643803
 20
6952.4206569562884
 11
8032.7616165029403
 21
7317.2560978351876
  0
LINE
  8
_0-a_0
  6
CONTINUOUS
 62
    3
 10
8391.6553725050999
 20
6438.9265548902868
 11
8394.1164989643803
 21
6952.4206569562884
  0
LINE
  8
_0-a_0
  6
CONTINUOUS
 62
    3
 10
8026.8199316262408
 20
6077.5716724288886
 11
8391.6553725050999
 21
6438.9265548902868
  0
LINE
  8
_0-a_0
  6
CONTINUOUS
 62
    3
 10
7513.3258295602518
 20
6080.0327988880863
 11
8026.8199316262408
 21
6077.5716724288886
  0
LINE
  8
_0-a_0
  6
CONTINUOUS
 62
    3
 10
7151.9709470988109
 20
6444.8682397669872
 11
7513.3258295602518
 21
6080.0327988880863
  0
LINE
  8
_0-a_0
  6
CONTINUOUS
 62
    3
 10
7154.4320735580905
 20
6958.362341832988
 11
7151.9709470988109
 21
6444.8682397669872
  0
CIRCLE
  8
_0-a_0
  6
CONTINUOUS
 62
    7
 10
9854.4169434013202
 20
7434.9905864884877
 40
18
  0
LINE
  8
_0-a_0
  6
CONTINUOUS
 62
    7
 10
9854.4169434013202
 20
7434.9905864884877
 11
10370.11368933521
 21
9359.5970436116877
  0
LINE
  8
_0-a_0
  6
CONTINUOUS
 62
    7
 10
10370.11368933521
 20
9359.5970436116877
 11
10791.95419904664
 21
9359.5970436116877
  0
LINE
  8
_0-a_0
  6
CONTINUOUS
 62
    7
 10
11051.88200763142
 20
4948.6444483616369
 11
10234.251752228671
 21
4948.6444483616369
  0
LINE
  8
_0-a_0
  6
CONTINUOUS
 62
    7
 10
11051.88200763142
 20
8448.6444483615887
 11
10234.251752228671
 21
8448.6444483615887
  0
LINE
  8
_0-a_0
  6
CONTINUOUS
 62
    7
 10
11051.88200763142
 20
4948.6444483616369
 11
11051.88200763142
 21
8448.6444483615887
  0
SOLID
  8
_0-a_0
  6
CONTINUOUS
 62
    7
 10
11026.68200763142
 20
5098.6444483616369
 11
11077.082007631421
 21
5098.6444483616369
 12
11051.88200763142
 22
4948.6444483616369
 13
11051.88200763142
 23
4948.6444483616369
  0
SOLID
  8
_0-a_0
  6
CONTINUOUS
 62
    7
 10
11077.082007631421
 20
8298.6444483615887
 11
11026.68200763142
 21
8298.6444483615887
 12
11051.88200763142
 22
8448.6444483615887
 13
11051.88200763142
 23
8448.6444483615887
  0
LINE
  8
_0-a_0
  6
CONTINUOUS
 62
    7
 10
10652.184391008012
 20
5448.6444483616278
 11
9717.7289882575205
 21
5448.6444483616278
  0
LINE
  8
_0-a_0
  6
CONTINUOUS
 62
    7
 10
10652.184391008012
 20
7948.6444483615878
 11
9717.7289882575205
 21
7948.6444483615878
  0
LINE
  8
_0-a_0
  6
CONTINUOUS
 62
    7
 10
10652.184391008012
 20
5448.6444483616278
 11
10652.184391008012
 21
7948.6444483615878
  0
SOLID
  8
_0-a_0
  6
CONTINUOUS
 62
    7
 10
10626.984391008011
 20
5598.6444483616278
 11
10677.38439100801
 21
5598.6444483616278
 12
10652.184391008012
 22
5448.6444483616278
 13
10652.184391008012
 23
5448.6444483616278
  0
SOLID
  8
_0-a_0
  6
CONTINUOUS
 62
    7
 10
10677.38439100801
 20
7798.6444483615878
 11
10626.984391008011
 21
7798.6444483615878
 12
10652.184391008012
 22
7948.6444483615878
 13
10652.184391008012
 23
7948.6444483615878
  0
LINE
  8
_0-a_0
  6
CONTINUOUS
 62
    7
 10
6878.0437230315711
 20
4411.2434660433673
 11
6878.0437230315711
 21
5309.752306907807
  0
LINE
  8
_0-a_0
  6
CONTINUOUS
 62
    7
 10
9578.0437230315893
 20
4411.2434660433673
 11
9578.0437230315893
 21
5309.752306907807
  0
LINE
  8
_0-a_0
  6
CONTINUOUS
 62
    7
 10
7773.0437230315911
 20
4651.2434660433673
 11
7773.0437230315911
 21
5309.752306907807
  0
LINE
  8
_0-a_0
  6
CONTINUOUS
 62
    7
 10
9028.0437230315911
 20
4651.2434660433673
 11
9028.0437230315911
 21
5309.752306907807
  0
LINE
  8
_0-a_0
  6
CONTINUOUS
 62
    7
 10
6878.0437230315711
 20
4411.2434660433673
 11
9578.0437230315893
 21
4411.2434660433673
  0
LINE
  8
_0-a_0
  6
CONTINUOUS
 62
    7
 10
6878.0437230315711
 20
4651.2434660433673
 11
9578.0437230315893
 21
4651.2434660433673
  0
SOLID
  8
_0-a_0
  6
CONTINUOUS
 62
    7
 10
7028.0437230315702
 20
4436.4434660433662
 11
7028.0437230315702
 21
4386.0434660433675
 12
6878.0437230315711
 22
4411.2434660433673
 13
6878.0437230315711
 23
4411.2434660433673
  0
SOLID
  8
_0-a_0
  6
CONTINUOUS
 62
    7
 10
9428.0437230315893
 20
4386.0434660433675
 11
9428.0437230315893
 21
4436.4434660433662
 12
9578.0437230315893
 22
4411.2434660433673
 13
9578.0437230315893
 23
4411.2434660433673
  0
SOLID
  8
_0-a_0
  6
CONTINUOUS
 62
    7
 10
7028.0437230315702
 20
4676.4434660433662
 11
7028.0437230315702
 21
4626.0434660433675
 12
6878.0437230315711
 22
4651.2434660433673
 13
6878.0437230315711
 23
4651.2434660433673
  0
SOLID
  8
_0-a_0
  6
CONTINUOUS
 62
    7
 10
7623.0437230315902
 20
4626.0434660433675
 11
7623.0437230315902
 21
4676.4434660433662
 12
7773.0437230315911
 22
4651.2434660433673
 13
7773.0437230315911
 23
4651.2434660433673
  0
SOLID
  8
_0-a_0
  6
CONTINUOUS
 62
    7
 10
281154.22664092528
 20
528100.1819729202
 11
281154.22664092528
 21
528150.5819729201
 12
281004.22664092528
 22
528125.38197292003
 13
281004.22664092528
 23
528125.38197292003
  0
SOLID
  8
_0-a_0
  6
CONTINUOUS
 62
    7
 10
8878.0437230315911
 20
4626.0434660433675
 11
8878.0437230315911
 21
4676.4434660433662
 12
9028.0437230315911
 22
4651.2434660433673
 13
9028.0437230315911
 23
4651.2434660433673
  0
SOLID
  8
_0-a_0
  6
CONTINUOUS
 62
    7
 10
356454.22664092528
 20
528100.1819729202
 11
356454.22664092528
 21
528150.5819729201
 12
356304.22664092528
 22
528125.38197292003
 13
356304.22664092528
 23
528125.38197292003
  0
SOLID
  8
_0-a_0
  6
CONTINUOUS
 62
    7
 10
9428.0437230315893
 20
4626.0434660433675
 11
9428.0437230315893
 21
4676.4434660433662
 12
9578.0437230315893
 22
4651.2434660433673
 13
9578.0437230315893
 23
4651.2434660433673
  0
LINE
  8
_0-a_0
  6
CONTINUOUS
 62
    7
 10
10541.910291466431
 20
1172.5685479032277
 11
9674.3510249307401
 21
1172.5685479032277
  0
LINE
  8
_0-a_0
  6
CONTINUOUS
 62
    7
 10
10541.910291466431
 20
3972.5685479032263
 11
9674.3510249307401
 21
3972.5685479032263
  0
LINE
  8
_0-a_0
  6
CONTINUOUS
 62
    7
 10
10541.910291466431
 20
1172.5685479032277
 11
10541.910291466431
 21
3972.5685479032263
  0
SOLID
  8
_0-a_0
  6
CONTINUOUS
 62
    7
 10
10516.71029146643
 20
1322.5685479032277
 11
10567.11029146643
 21
1322.5685479032277
 12
10541.910291466431
 22
1172.5685479032277
 13
10541.910291466431
 23
1172.5685479032277
  0
SOLID
  8
_0-a_0
  6
CONTINUOUS
 62
    7
 10
10567.11029146643
 20
3822.5685479032281
 11
10516.71029146643
 21
3822.5685479032281
 12
10541.910291466431
 22
3972.5685479032263
 13
10541.910291466431
 23
3972.5685479032263
  0
LINE
  8
_0-a_0
  6
CONTINUOUS
 62
    7
 10
10110.74378851947
 20
1172.5685479032277
 11
9674.3510249307401
 21
1172.5685479032277
  0
LINE
  8
_0-a_0
  6
CONTINUOUS
 62
    7
 10
10110.74378851947
 20
3172.5685479032281
 11
9674.3510249307401
 21
3172.5685479032281
  0
LINE
  8
_0-a_0
  6
CONTINUOUS
 62
    7
 10
10110.74378851947
 20
1172.5685479032277
 11
10110.74378851947
 21
3172.5685479032281
  0
SOLID
  8
_0-a_0
  6
CONTINUOUS
 62
    7
 10
10085.54378851947
 20
1322.5685479032277
 11
10135.943788519469
 21
1322.5685479032277
 12
10110.74378851947
 22
1172.5685479032277
 13
10110.74378851947
 23
1172.5685479032277
  0
SOLID
  8
_0-a_0
  6
CONTINUOUS
 62
    7
 10
10135.943788519469
 20
3022.5685479032281
 11
10085.54378851947
 21
3022.5685479032281
 12
10110.74378851947
 22
3172.5685479032281
 13
10110.74378851947
 23
3172.5685479032281
  0
LINE
  8
_0-a_0
  6
CONTINUOUS
 62
    7
 10
6873.0437230315911
 20
2230.4395367702973
 11
8673.0437230315911
 21
2230.4395367702973
  0
SOLID
  8
_0-a_0
  6
CONTINUOUS
 62
    7
 10
7023.0437230315911
 20
2255.6395367702976
 11
7023.0437230315911
 21
2205.2395367702975
 12
6873.0437230315911
 22
2230.4395367702973
 13
6873.0437230315911
 23
2230.4395367702973
  0
SOLID
  8
_0-a_0
  6
CONTINUOUS
 62
    7
 10
8523.0437230315911
 20
2205.2395367702975
 11
8523.0437230315911
 21
2255.6395367702976
 12
8673.0437230315911
 22
2230.4395367702973
 13
8673.0437230315911
 23
2230.4395367702973
  0
LINE
  8
_0-a_0
  6
CONTINUOUS
 62
    7
 10
5123.0437230315893
 20
9058.5625904177887
 11
5123.0437230315893
 21
8569.3845943469878
  0
LINE
  8
_0-a_0
  6
CONTINUOUS
 62
    7
 10
10123.043723031591
 20
9058.5625904177887
 11
10123.043723031591
 21
8569.3845943469878
  0
LINE
  8
_0-a_0
  6
CONTINUOUS
 62
    7
 10
5123.0437230315893
 20
9058.5625904177887
 11
10123.043723031591
 21
9058.5625904177887
  0
SOLID
  8
_0-a_0
  6
CONTINUOUS
 62
    7
 10
5273.0437230315893
 20
9083.7625904177876
 11
5273.0437230315893
 21
9033.3625904177879
 12
5123.0437230315893
 22
9058.5625904177887
 13
5123.0437230315893
 23
9058.5625904177887
  0
SOLID
  8
_0-a_0
  6
CONTINUOUS
 62
    7
 10
9973.0437230315911
 20
9033.3625904177879
 11
9973.0437230315911
 21
9083.7625904177876
 12
10123.043723031591
 22
9058.5625904177887
 13
10123.043723031591
 23
9058.5625904177887
  0
TEXT
  8
_0-a_0
 62
    7
 10
7413.4165829823987
 20
2229.348652992001
 40
180
 41
1.06666666666667
 50
0
  1
MAXφ1800
  0
TEXT
  8
_0-a_0
 62
    7
 10
10109.632335726465
 20
1934.8590683476243
 40
180
 41
1.06666666666667
 50
90
  1
2,000
  0
TEXT
  8
_0-a_0
 62
    7
 10
10561.183032181176
 20
2399.498190786529
 40
180
 41
1.06666666666667
 50
90
  1
2,800
  0
TEXT
  8
_0-a_0
 62
    7
 10
11028.970706374836
 20
6370.047903396724
 40
180
 41
1.06666666666667
 50
90
  1
(3,500)
  0
TEXT
  8
_0-a_0
 62
    7
 10
10663.44696180774
 20
6473.1443441720585
 40
180
 41
1.06666666666667
 50
90
  1
2,500
  0
TEXT
  8
_0-a_0
 62
    7
 10
8170.3875757860114
 20
4654.8980250434288
 40
180
 41
1.06666666666667
 50
0
  1
1,255
  0
TEXT
  8
_0-a_0
 62
    7
 10
9191.9795798325104
 20
4664.2704287502775
 40
180
 41
1.06666666666667
 50
0
  1
550
  0
TEXT
  8
_0-a_0
 62
    7
 10
7982.9395016490398
 20
4420.5879323722138
 40
180
 41
1.06666666666667
 50
0
  1
2,700
  0
TEXT
  8
_0-a_0
 62
    7
 10
7289.3816273422426
 20
9050.5553635554243
 40
180
 41
1.06666666666667
 50
0
  1
(5,000)
  0
TEXT
  8
_0-a_0
 62
    7
 10
7214.4023976874541
 20
4654.8980250434288
 40
180
 41
1.06666666666667
 50
0
  1
895
  0
TEXT
  8
_0-6_7
 62
    7
 10
5288.2148260211807
 20
11923.298033282905
 40
240
 41
1
 50
0
  1
３－３ｅ　機械、削進台の寸法図　(d)
  0
TEXT
  8
_0-6_7
 62
    7
 10
13332.390317700454
 20
11942.360060514371
 40
210
 41
1
 50
0
  1
S=1/60
  0
ENDSEC
  0
EOF
