  0
SECTION
  2
HEADER
  9
$ACADVER
  1
AC1014
  9
$ACADMAINTVER
 70
     9
  9
$DWGCODEPAGE
  3
ANSI_932
  9
$INSBASE
 10
0.0
 20
0.0
 30
0.0
  9
$EXTMIN
 10
269.0868362763048
 20
448.7686243941643
 30
-0.0000000349181948
  9
$EXTMAX
 10
4788.328092795371
 20
3056.304939273168
 30
0.0000000814935746
  9
$LIMMIN
 10
0.0
 20
0.0
  9
$LIMMAX
 10
4000.0
 20
3500.0
  9
$ORTHOMODE
 70
     0
  9
$REGENMODE
 70
     1
  9
$FILLMODE
 70
     1
  9
$QTEXTMODE
 70
     0
  9
$MIRRTEXT
 70
     0
  9
$DRAGMODE
 70
     2
  9
$LTSCALE
 40
1.0
  9
$OSMODE
 70
    47
  9
$ATTMODE
 70
     1
  9
$TEXTSIZE
 40
218.5606906076936
  9
$TRACEWID
 40
1.0
  9
$TEXTSTYLE
  7
STANDARD
  9
$CLAYER
  8
0
  9
$CELTYPE
  6
BYLAYER
  9
$CECOLOR
 62
   256
  9
$CELTSCALE
 40
1.0
  9
$DELOBJ
 70
     1
  9
$DISPSILH
 70
     0
  9
$DIMSCALE
 40
1.0
  9
$DIMASZ
 40
20.0
  9
$DIMEXO
 40
0.625
  9
$DIMDLI
 40
3.75
  9
$DIMRND
 40
0.0
  9
$DIMDLE
 40
0.0
  9
$DIMEXE
 40
1.25
  9
$DIMTP
 40
0.0
  9
$DIMTM
 40
0.0
  9
$DIMTXT
 40
30.0
  9
$DIMCEN
 40
2.5
  9
$DIMTSZ
 40
0.0
  9
$DIMTOL
 70
     0
  9
$DIMLIM
 70
     0
  9
$DIMTIH
 70
     0
  9
$DIMTOH
 70
     0
  9
$DIMSE1
 70
     0
  9
$DIMSE2
 70
     0
  9
$DIMTAD
 70
     1
  9
$DIMZIN
 70
     8
  9
$DIMBLK
  1
OPEN30
  9
$DIMASO
 70
     1
  9
$DIMSHO
 70
     1
  9
$DIMPOST
  1

  9
$DIMAPOST
  1

  9
$DIMALT
 70
     0
  9
$DIMALTD
 70
     3
  9
$DIMALTF
 40
0.03937007874016
  9
$DIMLFAC
 40
1.0
  9
$DIMTOFL
 70
     1
  9
$DIMTVP
 40
0.0
  9
$DIMTIX
 70
     0
  9
$DIMSOXD
 70
     0
  9
$DIMSAH
 70
     0
  9
$DIMBLK1
  1

  9
$DIMBLK2
  1

  9
$DIMSTYLE
  2
ISO-25-BRGK
  9
$DIMCLRD
 70
     0
  9
$DIMCLRE
 70
     0
  9
$DIMCLRT
 70
     0
  9
$DIMTFAC
 40
1.0
  9
$DIMGAP
 40
10.0
  9
$DIMJUST
 70
     0
  9
$DIMSD1
 70
     0
  9
$DIMSD2
 70
     0
  9
$DIMTOLJ
 70
     0
  9
$DIMTZIN
 70
     8
  9
$DIMALTZ
 70
     0
  9
$DIMALTTZ
 70
     0
  9
$DIMFIT
 70
     2
  9
$DIMUPT
 70
     0
  9
$DIMUNIT
 70
     2
  9
$DIMDEC
 70
     2
  9
$DIMTDEC
 70
     2
  9
$DIMALTU
 70
     2
  9
$DIMALTTD
 70
     3
  9
$DIMTXSTY
  7
STANDARD
  9
$DIMAUNIT
 70
     0
  9
$LUNITS
 70
     2
  9
$LUPREC
 70
     4
  9
$SKETCHINC
 40
1.0
  9
$FILLETRAD
 40
0.0
  9
$AUNITS
 70
     0
  9
$AUPREC
 70
     0
  9
$MENU
  1
.
  9
$ELEVATION
 40
0.0
  9
$PELEVATION
 40
0.0
  9
$THICKNESS
 40
0.0
  9
$LIMCHECK
 70
     0
  9
$BLIPMODE
 70
     0
  9
$CHAMFERA
 40
0.0
  9
$CHAMFERB
 40
0.0
  9
$CHAMFERC
 40
0.0
  9
$CHAMFERD
 40
0.0
  9
$SKPOLY
 70
     0
  9
$TDCREATE
 40
2453472.549002813
  9
$TDUPDATE
 40
2453472.730941470
  9
$TDINDWG
 40
0.1095652662
  9
$TDUSRTIMER
 40
0.1095638194
  9
$USRTIMER
 70
     1
  9
$ANGBASE
 50
0.0
  9
$ANGDIR
 70
     0
  9
$PDMODE
 70
     0
  9
$PDSIZE
 40
0.0
  9
$PLINEWID
 40
0.0
  9
$COORDS
 70
     1
  9
$SPLFRAME
 70
     0
  9
$SPLINETYPE
 70
     6
  9
$SPLINESEGS
 70
     8
  9
$ATTDIA
 70
     0
  9
$ATTREQ
 70
     1
  9
$HANDLING
 70
 22529
  9
$HANDSEED
  5
AD6
  9
$SURFTAB1
 70
     6
  9
$SURFTAB2
 70
     6
  9
$SURFTYPE
 70
     6
  9
$SURFU
 70
     6
  9
$SURFV
 70
     6
  9
$UCSNAME
  2

  9
$UCSORG
 10
0.0
 20
0.0
 30
0.0
  9
$UCSXDIR
 10
1.0
 20
0.0
 30
0.0
  9
$UCSYDIR
 10
0.0
 20
1.0
 30
0.0
  9
$PUCSNAME
  2

  9
$PUCSORG
 10
0.0
 20
0.0
 30
0.0
  9
$PUCSXDIR
 10
1.0
 20
0.0
 30
0.0
  9
$PUCSYDIR
 10
0.0
 20
1.0
 30
0.0
  9
$USERI1
 70
     0
  9
$USERI2
 70
     0
  9
$USERI3
 70
     0
  9
$USERI4
 70
     0
  9
$USERI5
 70
     0
  9
$USERR1
 40
0.0
  9
$USERR2
 40
0.0
  9
$USERR3
 40
0.0
  9
$USERR4
 40
0.0
  9
$USERR5
 40
0.0
  9
$WORLDVIEW
 70
     1
  9
$SHADEDGE
 70
     3
  9
$SHADEDIF
 70
    70
  9
$TILEMODE
 70
     1
  9
$MAXACTVP
 70
    64
  9
$PINSBASE
 10
0.0
 20
0.0
 30
0.0
  9
$PLIMCHECK
 70
     0
  9
$PEXTMIN
 10
-3.765863330632896
 20
-3.647897489601859
 30
0.0
  9
$PEXTMAX
 10
289.7341998001099
 20
203.1566045507903
 30
0.0
  9
$PLIMMIN
 10
-5.873748779296875
 20
-5.873749732971191
  9
$PLIMMAX
 10
291.0945739746093
 20
204.0995779037475
  9
$UNITMODE
 70
     0
  9
$VISRETAIN
 70
     1
  9
$PLINEGEN
 70
     0
  9
$PSLTSCALE
 70
     1
  9
$TREEDEPTH
 70
  3020
  9
$PICKSTYLE
 70
     1
  9
$CMLSTYLE
  2
STANDARD
  9
$CMLJUST
 70
     0
  9
$CMLSCALE
 40
20.0
  9
$PROXYGRAPHICS
 70
     1
  9
$MEASUREMENT
 70
     1
  0
ENDSEC
  0
SECTION
  2
CLASSES
  0
CLASS
  1
ACDBDICTIONARYWDFLT
  2
AcDbDictionaryWithDefault
  3
AutoCAD 2000
 90
        0
280
     0
281
     0
  0
CLASS
  1
ACDBPLACEHOLDER
  2
AcDbPlaceHolder
  3
AutoCAD 2000
 90
        0
280
     0
281
     0
  0
CLASS
  1
LAYOUT
  2
AcDbLayout
  3
AutoCAD 2000
 90
        0
280
     0
281
     0
  0
CLASS
  1
DICTIONARYVAR
  2
AcDbDictionaryVar
  3
AutoCAD 2000
 90
        0
280
     0
281
     0
  0
CLASS
  1
RASTERVARIABLES
  2
AcDbRasterVariables
  3
ISM
 90
        0
280
     0
281
     0
  0
CLASS
  1
IMAGEDEF
  2
AcDbRasterImageDef
  3
ISM
 90
        0
280
     0
281
     0
  0
CLASS
  1
IMAGEDEF_REACTOR
  2
AcDbRasterImageDefReactor
  3
ISM
 90
        1
280
     0
281
     0
  0
CLASS
  1
IMAGE
  2
AcDbRasterImage
  3
ISM
 90
      127
280
     0
281
     1
  0
CLASS
  1
SORTENTSTABLE
  2
AcDbSortentsTable
  3
AutoCAD 2000
 90
        0
280
     0
281
     0
  0
CLASS
  1
DIMASSOC
  2
AcDbDimAssoc
  3
"AcDbDimAssoc|Product Desc:     AcDim ARX App For Dimension|Company:          Autodesk, Inc.|WEB Address:      www.autodesk.com"
 90
        0
280
     0
281
     0
  0
CLASS
  1
LONG_TRANSACTION
  2
AcDbLongTransaction
  3
AutoCAD 2000
 90
        0
280
     0
281
     0
  0
CLASS
  1
LWPOLYLINE
  2
AcDbPolyline
  3
AutoCAD 2000
 90
        0
280
     0
281
     1
  0
CLASS
  1
HATCH
  2
AcDbHatch
  3
AutoCAD 2000
 90
        0
280
     0
281
     1
  0
CLASS
  1
XRECORD
  2
AcDbXrecord
  3
AutoCAD 2000
 90
        0
280
     0
281
     0
  0
ENDSEC
  0
SECTION
  2
TABLES
  0
TABLE
  2
VPORT
  5
8
330
0
100
AcDbSymbolTable
 70
     3
  0
VPORT
  5
AB1
330
8
100
AcDbSymbolTableRecord
100
AcDbViewportTableRecord
  2
*ACTIVE
 70
     0
 10
0.0
 20
0.0
 11
1.0
 21
1.0
 12
2394.164046397686
 22
1750.0
 13
0.0
 23
0.0
 14
10.0
 24
10.0
 15
10.0
 25
10.0
 16
0.0
 26
0.0
 36
1.0
 17
0.0
 27
0.0
 37
0.0
 40
3634.506955408019
 41
1.323651452282157
 42
50.0
 43
0.0
 44
0.0
 50
0.0
 51
0.0
 71
     0
 72
  1000
 73
     1
 74
     3
 75
     0
 76
     0
 77
     0
 78
     0
  0
ENDTAB
  0
TABLE
  2
LTYPE
  5
5
330
0
100
AcDbSymbolTable
 70
     2
  0
LTYPE
  5
14
330
5
100
AcDbSymbolTableRecord
100
AcDbLinetypeTableRecord
  2
BYBLOCK
 70
     0
  3

 72
    65
 73
     0
 40
0.0
  0
LTYPE
  5
15
330
5
100
AcDbSymbolTableRecord
100
AcDbLinetypeTableRecord
  2
BYLAYER
 70
     0
  3

 72
    65
 73
     0
 40
0.0
  0
LTYPE
  5
16
330
5
100
AcDbSymbolTableRecord
100
AcDbLinetypeTableRecord
  2
CONTINUOUS
 70
     0
  3
Solid line
 72
    65
 73
     0
 40
0.0
  0
LTYPE
  5
62A
330
5
100
AcDbSymbolTableRecord
100
AcDbLinetypeTableRecord
  2
CENTER
 70
     0
  3
Center ____ _ ____ _ ____ _ ____ _ ____ _ ____
 72
    65
 73
     4
 40
50.8
 49
31.75
 74
     0
 49
-6.349999999999999
 74
     0
 49
6.349999999999999
 74
     0
 49
-6.349999999999999
 74
     0
  0
ENDTAB
  0
TABLE
  2
LAYER
  5
2
330
0
100
AcDbSymbolTable
 70
     4
  0
LAYER
  5
10
330
2
100
AcDbSymbolTableRecord
100
AcDbLayerTableRecord
  2
0
 70
     0
 62
   255
  6
CONTINUOUS
  0
LAYER
  5
8F
330
2
100
AcDbSymbolTableRecord
100
AcDbLayerTableRecord
  2
BMK
 70
     0
 62
     1
  6
CENTER
  0
LAYER
  5
2C2
330
2
100
AcDbSymbolTableRecord
100
AcDbLayerTableRecord
  2
DEFPOINTS
 70
     0
 62
     7
  6
CONTINUOUS
  0
LAYER
  5
2E7
330
2
100
AcDbSymbolTableRecord
100
AcDbLayerTableRecord
  2
STR
 70
     0
 62
     7
  6
CONTINUOUS
  0
ENDTAB
  0
TABLE
  2
STYLE
  5
3
330
0
100
AcDbSymbolTable
 70
     1
  0
STYLE
  5
11
330
3
100
AcDbSymbolTableRecord
100
AcDbTextStyleTableRecord
  2
STANDARD
 70
     0
 40
0.0
 41
1.0
 50
0.0
 71
     0
 42
218.5606906076936
  3
txt
  4

  0
ENDTAB
  0
TABLE
  2
VIEW
  5
6
330
0
100
AcDbSymbolTable
 70
     0
  0
ENDTAB
  0
TABLE
  2
UCS
  5
7
330
0
100
AcDbSymbolTable
 70
     0
  0
ENDTAB
  0
TABLE
  2
APPID
  5
9
330
0
100
AcDbSymbolTable
 70
     1
  0
APPID
  5
12
330
9
100
AcDbSymbolTableRecord
100
AcDbRegAppTableRecord
  2
ACAD
 70
     0
  0
ENDTAB
  0
TABLE
  2
DIMSTYLE
  5
A
330
0
100
AcDbSymbolTable
 70
     1
  0
DIMSTYLE
105
2E8
330
A
100
AcDbSymbolTableRecord
100
AcDbDimStyleTableRecord
  2
ISO-25-BRGK
 70
     0
  3

  4

  5
OPEN30
  6

  7

 40
1.0
 41
20.0
 42
0.625
 43
3.75
 44
1.25
 45
0.0
 46
0.0
 47
0.0
 48
0.0
140
30.0
141
2.5
142
0.0
143
0.03937007874016
144
1.0
145
0.0
146
1.0
147
10.0
 71
     0
 72
     0
 73
     0
 74
     0
 75
     0
 76
     0
 77
     1
 78
     8
170
     0
171
     3
172
     1
173
     0
174
     0
175
     0
176
     0
177
     0
178
     0
270
     2
271
     2
272
     2
273
     2
274
     3
340
11
275
     0
280
     0
281
     0
282
     0
283
     0
284
     8
285
     0
286
     0
287
     2
288
     0
  0
ENDTAB
  0
TABLE
  2
BLOCK_RECORD
  5
1
330
0
100
AcDbSymbolTable
 70
    14
  0
BLOCK_RECORD
  5
1F
102
{ACAD_XDICTIONARY
360
161
102
}
330
1
100
AcDbSymbolTableRecord
100
AcDbBlockTableRecord
  2
*MODEL_SPACE
  0
BLOCK_RECORD
  5
55
102
{ACAD_XDICTIONARY
360
AD4
102
}
330
1
100
AcDbSymbolTableRecord
100
AcDbBlockTableRecord
  2
*PAPER_SPACE
  0
BLOCK_RECORD
  5
2D2
330
1
100
AcDbSymbolTableRecord
100
AcDbBlockTableRecord
  2
_OPEN30
  0
BLOCK_RECORD
  5
2D8
330
1
100
AcDbSymbolTableRecord
100
AcDbBlockTableRecord
  2
_NONE
  0
ENDTAB
  0
ENDSEC
  0
SECTION
  2
BLOCKS
  0
BLOCK
  5
20
330
1F
100
AcDbEntity
  8
0
100
AcDbBlockBegin
  2
*MODEL_SPACE
 70
     0
 10
0.0
 20
0.0
 30
0.0
  3
*MODEL_SPACE
  1

  0
ENDBLK
  5
21
330
1F
100
AcDbEntity
  8
0
100
AcDbBlockEnd
  0
BLOCK
  5
57
330
55
100
AcDbEntity
 67
     1
  8
0
100
AcDbBlockBegin
  2
*PAPER_SPACE
 70
     0
 10
0.0
 20
0.0
 30
0.0
  3
*PAPER_SPACE
  1

  0
ENDBLK
  5
58
330
55
100
AcDbEntity
 67
     1
  8
0
100
AcDbBlockEnd
  0
BLOCK
  5
2D3
330
2D2
100
AcDbEntity
  8
0
100
AcDbBlockBegin
  2
_OPEN30
 70
     0
 10
0.0
 20
0.0
 30
0.0
  3
_OPEN30
  1

  0
LINE
  5
2D4
330
2D2
100
AcDbEntity
  8
0
  6
BYBLOCK
 62
     0
100
AcDbLine
 10
-1.0
 20
0.26794919
 30
0.0
 11
0.0
 21
0.0
 31
0.0
  0
LINE
  5
2D5
330
2D2
100
AcDbEntity
  8
0
  6
BYBLOCK
 62
     0
100
AcDbLine
 10
0.0
 20
0.0
 30
0.0
 11
-1.0
 21
-0.26794919
 31
0.0
  0
LINE
  5
2D6
330
2D2
100
AcDbEntity
  8
0
  6
BYBLOCK
 62
     0
100
AcDbLine
 10
0.0
 20
0.0
 30
0.0
 11
-1.0
 21
0.0
 31
0.0
  0
ENDBLK
  5
2D7
330
2D2
100
AcDbEntity
  8
0
100
AcDbBlockEnd
  0
BLOCK
  5
2D9
330
2D8
100
AcDbEntity
  8
0
100
AcDbBlockBegin
  2
_NONE
 70
     0
 10
0.0
 20
0.0
 30
0.0
  3
_NONE
  1

  0
ENDBLK
  5
2DA
330
2D8
100
AcDbEntity
  8
0
100
AcDbBlockEnd
  0
ENDSEC
  0
SECTION
  2
ENTITIES
  0
LINE
  5
A4
330
1F
100
AcDbEntity
  8
BMK
100
AcDbLine
 10
2880.632911664132
 20
1587.54989691843
 30
0.0
 11
269.0955152290098
 21
1587.54989691843
 31
0.0
  0
LINE
  5
B1
330
1F
100
AcDbEntity
  8
STR
100
AcDbLine
 10
834.1690573583074
 20
2062.549896918429
 30
0.0
 11
834.1690573583068
 21
1100.669577547043
 31
0.0
  0
LINE
  5
B2
330
1F
100
AcDbEntity
  8
STR
100
AcDbLine
 10
834.1690573583074
 20
1969.062410509107
 30
0.0
 11
651.5381298732536
 21
1969.062410509107
 31
0.0
  0
LINE
  5
B6
330
1F
100
AcDbEntity
  8
STR
100
AcDbLine
 10
651.5381298732536
 20
1773.936323715971
 30
0.0
 11
834.1690573583074
 21
1773.936323715971
 31
0.0
  0
LINE
  5
B7
330
1F
100
AcDbEntity
  8
STR
100
AcDbLine
 10
651.5381298732536
 20
1658.792731623611
 30
0.0
 11
834.1690573583068
 21
1658.792731623611
 31
0.0
  0
LINE
  5
BB
330
1F
100
AcDbEntity
  8
STR
100
AcDbLine
 10
651.5381298732536
 20
1206.037383327754
 30
0.0
 11
651.5381298732536
 21
1969.062410509107
 31
0.0
  0
LINE
  5
BD
330
1F
100
AcDbEntity
  8
STR
100
AcDbLine
 10
651.5381298732536
 20
1587.54989691843
 30
0.0
 11
834.1690573583068
 21
1587.54989691843
 31
0.0
  0
LINE
  5
BE
330
1F
100
AcDbEntity
  8
STR
100
AcDbLine
 10
651.5381298732536
 20
1516.307062213249
 30
0.0
 11
834.1690573583068
 21
1516.307062213249
 31
0.0
  0
LINE
  5
C0
330
1F
100
AcDbEntity
  8
STR
100
AcDbLine
 10
651.5381298732536
 20
1401.16347012089
 30
0.0
 11
795.0629923439878
 21
1401.16347012089
 31
0.0
  0
LINE
  5
C1
330
1F
100
AcDbEntity
  8
STR
100
AcDbLine
 10
878.9013616475529
 20
2062.549896918429
 30
0.0
 11
878.901361647553
 21
1112.549896918431
 31
0.0
  0
LINE
  5
C2
330
1F
100
AcDbEntity
  8
STR
100
AcDbLine
 10
834.1690573583074
 20
2062.549896918429
 30
0.0
 11
878.9013616475529
 21
2062.549896918429
 31
0.0
  0
LINE
  5
C4
330
1F
100
AcDbEntity
  8
STR
100
AcDbLine
 10
953.2236596055918
 20
2040.74561605115
 30
0.0
 11
878.901361647553
 21
2040.74561605115
 31
0.0
  0
LINE
  5
C6
330
1F
100
AcDbEntity
  8
STR
100
AcDbLine
 10
953.2236596055918
 20
2040.74561605115
 30
0.0
 11
1027.54595756363
 21
2040.74561605115
 31
0.0
  0
LINE
  5
C7
330
1F
100
AcDbEntity
  8
STR
100
AcDbLine
 10
1072.278261852876
 20
2062.549896918429
 30
0.0
 11
1027.54595756363
 21
2062.549896918429
 31
0.0
  0
LINE
  5
C8
330
1F
100
AcDbEntity
  8
STR
100
AcDbLine
 10
1027.54595756363
 20
2062.549896918429
 30
0.0
 11
1027.545957563631
 21
1112.549896918431
 31
0.0
  0
LINE
  5
C9
330
1F
100
AcDbEntity
  8
STR
100
AcDbLine
 10
1072.278261852876
 20
2062.549896918429
 30
0.0
 11
1072.278261852876
 21
1100.669577547043
 31
0.0
  0
LINE
  5
CC
330
1F
100
AcDbEntity
  8
STR
100
AcDbLine
 10
953.2236596055918
 20
2040.74561605115
 30
0.0
 11
953.2236596055916
 21
1134.35417778571
 31
0.0
  0
LINE
  5
CD
330
1F
100
AcDbEntity
  8
STR
100
AcDbLine
 10
1141.738402043894
 20
2028.840856506246
 30
0.0
 11
1072.278261852876
 21
2028.840856506246
 31
0.0
  0
LINE
  5
CE
330
1F
100
AcDbEntity
  8
STR
100
AcDbLine
 10
1141.738402043894
 20
2028.840856506246
 30
0.0
 11
1141.738402043894
 21
1302.148089985192
 31
0.0
  0
LINE
  5
CF
330
1F
100
AcDbEntity
  8
STR
100
AcDbLine
 10
1141.738402043894
 20
1302.148089985192
 30
0.0
 11
1111.384326867195
 21
1302.148089985192
 31
0.0
  0
LINE
  5
D0
330
1F
100
AcDbEntity
  8
STR
100
AcDbLine
 10
834.1690573583074
 20
1449.083763128878
 30
0.0
 11
795.0629923439882
 21
1449.083763128878
 31
0.0
  0
LINE
  5
D1
330
1F
100
AcDbEntity
  8
STR
100
AcDbLine
 10
795.0629923439882
 20
1449.083763128878
 30
0.0
 11
795.0629923439882
 21
1068.38163100247
 31
0.0
  0
LINE
  5
D5
330
1F
100
AcDbEntity
  8
STR
100
AcDbLine
 10
953.2236596055918
 20
1068.381631002471
 30
0.0
 11
795.0629923439882
 21
1068.38163100247
 31
0.0
  0
LINE
  5
D6
330
1F
100
AcDbEntity
  8
STR
100
AcDbLine
 10
1111.384326867195
 20
1449.083763128878
 30
0.0
 11
1111.384326867195
 21
1068.38163100247
 31
0.0
  0
LINE
  5
D7
330
1F
100
AcDbEntity
  8
STR
100
AcDbLine
 10
1072.278261852876
 20
1449.083763128878
 30
0.0
 11
1111.384326867195
 21
1449.083763128878
 31
0.0
  0
LINE
  5
D8
330
1F
100
AcDbEntity
  8
STR
100
AcDbLine
 10
953.2236596055918
 20
1068.381631002471
 30
0.0
 11
1111.384326867195
 21
1068.38163100247
 31
0.0
  0
LINE
  5
D9
330
1F
100
AcDbEntity
  8
STR
100
AcDbLine
 10
834.1690573583074
 20
1100.669577547044
 30
0.0
 11
1072.278261852876
 21
1100.669577547044
 31
0.0
  0
LINE
  5
FA
330
1F
100
AcDbEntity
  8
STR
100
AcDbLine
 10
598.7384020438944
 20
1068.38163100247
 30
0.0
 11
598.7384020438944
 21
812.5498969184302
 31
0.0
  0
LINE
  5
FB
330
1F
100
AcDbEntity
  8
STR
100
AcDbLine
 10
598.7384020438944
 20
812.5498969184302
 30
0.0
 11
1398.738402043894
 21
812.5498969184302
 31
0.0
  0
LINE
  5
FC
330
1F
100
AcDbEntity
  8
STR
100
AcDbLine
 10
1398.738402043894
 20
812.5498969184302
 30
0.0
 11
1398.738402043894
 21
1068.38163100247
 31
0.0
  0
LINE
  5
FD
330
1F
100
AcDbEntity
  8
STR
100
AcDbLine
 10
1398.738402043894
 20
1068.38163100247
 30
0.0
 11
598.7384020438944
 21
1068.38163100247
 31
0.0
  0
LINE
  5
109
330
1F
100
AcDbEntity
  8
STR
100
AcDbLine
 10
544.0495481533835
 20
1059.585012369357
 30
0.0
 11
544.0495481533835
 21
821.3465155515441
 31
0.0
  0
LINE
  5
10A
330
1F
100
AcDbEntity
  8
STR
100
AcDbLine
 10
544.0495481533835
 20
821.3465155515441
 30
0.0
 11
598.7384020438948
 21
821.3465155515441
 31
0.0
  0
LINE
  5
10B
330
1F
100
AcDbEntity
  8
STR
100
AcDbLine
 10
544.0495481533835
 20
1059.585012369357
 30
0.0
 11
598.7384020438948
 21
1059.585012369357
 31
0.0
  0
LINE
  5
10C
330
1F
100
AcDbEntity
  8
STR
100
AcDbLine
 10
441.7384020438949
 20
1000.824841742814
 30
0.0
 11
544.0495481533835
 21
1000.824841742814
 31
0.0
  0
LINE
  5
10D
330
1F
100
AcDbEntity
  8
STR
100
AcDbLine
 10
441.7384020438949
 20
1000.824841742814
 30
0.0
 11
441.7384020438949
 21
953.4688983477716
 31
0.0
  0
LINE
  5
10E
330
1F
100
AcDbEntity
  8
STR
100
AcDbLine
 10
441.7384020438949
 20
953.4688983477716
 30
0.0
 11
544.0495481533835
 21
953.4688983477717
 31
0.0
  0
LINE
  5
10F
330
1F
100
AcDbEntity
  8
STR
100
AcDbLine
 10
441.7384020438949
 20
841.5366433169763
 30
0.0
 11
544.0495481533835
 21
841.5366433169765
 31
0.0
  0
LINE
  5
110
330
1F
100
AcDbEntity
  8
STR
100
AcDbLine
 10
441.7384020438949
 20
888.8925867120196
 30
0.0
 11
441.7384020438949
 21
841.5366433169763
 31
0.0
  0
LINE
  5
111
330
1F
100
AcDbEntity
  8
STR
100
AcDbLine
 10
441.7384020438949
 20
888.8925867120196
 30
0.0
 11
544.0495481533835
 21
888.8925867120196
 31
0.0
  0
LINE
  5
128
330
1F
100
AcDbEntity
  8
BMK
100
AcDbLine
 10
492.8939750986391
 20
749.2895710414561
 30
0.0
 11
492.8939750986391
 21
1095.168868036733
 31
0.0
  0
LINE
  5
12A
330
1F
100
AcDbEntity
  8
BMK
100
AcDbLine
 10
658.4453556395601
 20
1197.999772720959
 30
0.0
 11
658.4453556395601
 21
930.6390411725114
 31
0.0
  0
LINE
  5
12B
330
1F
100
AcDbEntity
  8
STR
100
AcDbLine
 10
619.6719608634448
 20
1168.172764457969
 30
0.0
 11
697.2187504156754
 21
1168.172764457969
 31
0.0
  0
LINE
  5
12C
330
1F
100
AcDbEntity
  8
STR
100
AcDbLine
 10
619.6719608634448
 20
1168.172764457969
 30
0.0
 11
619.6719608634448
 21
1068.38163100247
 31
0.0
  0
LINE
  5
12D
330
1F
100
AcDbEntity
  8
STR
100
AcDbLine
 10
697.2187504156754
 20
1168.172764457969
 30
0.0
 11
697.2187504156754
 21
1068.38163100247
 31
0.0
  0
LINE
  5
12E
330
1F
100
AcDbEntity
  8
STR
100
AcDbLine
 10
598.7384020438944
 20
1027.906406372414
 30
0.0
 11
1398.738402043894
 21
1027.906406372414
 31
0.0
  0
LINE
  5
12F
330
1F
100
AcDbEntity
  8
STR
100
AcDbLine
 10
598.7384020438944
 20
853.0251215484861
 30
0.0
 11
1398.738402043894
 21
853.0251215484861
 31
0.0
  0
LINE
  5
130
330
1F
100
AcDbEntity
  8
STR
100
AcDbLine
 10
598.7384020438944
 20
896.8536962553482
 30
0.0
 11
1398.738402043894
 21
896.8536962553482
 31
0.0
  0
LINE
  5
13D
330
1F
100
AcDbEntity
  8
STR
100
AcDbLine
 10
1398.738402043894
 20
1042.54989691843
 30
0.0
 11
2698.738402043895
 21
1042.54989691843
 31
0.0
  0
LINE
  5
13E
330
1F
100
AcDbEntity
  8
STR
100
AcDbLine
 10
2698.738402043895
 20
1042.54989691843
 30
0.0
 11
2698.738402043895
 21
812.5498969184301
 31
0.0
  0
LINE
  5
13F
330
1F
100
AcDbEntity
  8
STR
100
AcDbLine
 10
2698.738402043895
 20
812.5498969184301
 30
0.0
 11
1398.738402043894
 21
812.5498969184302
 31
0.0
  0
LINE
  5
140
330
1F
100
AcDbEntity
  8
STR
100
AcDbLine
 10
2700.128539329543
 20
988.350362956724
 30
0.0
 11
1398.738402043894
 21
988.3503629567242
 31
0.0
  0
LINE
  5
142
330
1F
100
AcDbEntity
  8
STR
100
AcDbLine
 10
2700.128539329543
 20
866.749430880136
 30
0.0
 11
1398.738402043894
 21
866.749430880136
 31
0.0
  0
LINE
  5
14C
330
1F
100
AcDbEntity
  8
BMK
100
AcDbLine
 10
3866.757716544653
 20
1176.037383327753
 30
0.0
 11
3866.757716544653
 21
2161.304161963093
 31
0.0
  0
LINE
  5
152
330
1F
100
AcDbEntity
  8
BMK
100
AcDbLine
 10
3267.177004015277
 20
1587.54989691843
 30
0.0
 11
4629.315712999761
 21
1587.54989691843
 31
0.0
  0
LINE
  5
15F
330
1F
100
AcDbEntity
  8
STR
100
AcDbLine
 10
4366.757716544653
 20
1068.38163100247
 30
0.0
 11
3366.757716544653
 21
1068.38163100247
 31
0.0
  0
LINE
  5
160
330
1F
100
AcDbEntity
  8
STR
100
AcDbLine
 10
3366.757716544654
 20
1027.906406372414
 30
0.0
 11
4366.757716544651
 21
1027.906406372414
 31
0.0
  0
LINE
  5
179
330
1F
100
AcDbEntity
  8
STR
100
AcDbLine
 10
4366.757716544651
 20
923.0775685031622
 30
0.0
 11
4242.534643606599
 21
923.0775685031622
 31
0.0
  0
LINE
  5
17A
330
1F
100
AcDbEntity
  8
STR
100
AcDbLine
 10
4242.534643606599
 20
923.0775685031622
 30
0.0
 11
4242.534643606599
 21
967.6657985787933
 31
0.0
  0
LINE
  5
17B
330
1F
100
AcDbEntity
  8
STR
100
AcDbLine
 10
4177.980621230879
 20
1027.906406372414
 30
0.0
 11
4177.980621230879
 21
967.6657985787933
 31
0.0
  0
LINE
  5
17C
330
1F
100
AcDbEntity
  8
STR
100
AcDbLine
 10
4177.980621230879
 20
967.6657985787933
 30
0.0
 11
4316.478297055222
 21
967.6657985787933
 31
0.0
  0
LINE
  5
17D
330
1F
100
AcDbEntity
  8
STR
100
AcDbLine
 10
4316.478297055222
 20
967.6657985787933
 30
0.0
 11
4316.478297055222
 21
1027.507899081654
 31
0.0
  0
LINE
  5
17E
330
1F
100
AcDbEntity
  8
STR
100
AcDbLine
 10
3555.534811858427
 20
1027.906406372414
 30
0.0
 11
3555.534811858427
 21
967.6657985787933
 31
0.0
  0
LINE
  5
17F
330
1F
100
AcDbEntity
  8
STR
100
AcDbLine
 10
3555.534811858427
 20
967.6657985787933
 30
0.0
 11
3417.037136034084
 21
967.6657985787933
 31
0.0
  0
LINE
  5
180
330
1F
100
AcDbEntity
  8
STR
100
AcDbLine
 10
3417.037136034084
 20
967.6657985787933
 30
0.0
 11
3417.037136034084
 21
1027.507899081654
 31
0.0
  0
LINE
  5
181
330
1F
100
AcDbEntity
  8
STR
100
AcDbLine
 10
3366.757716544654
 20
923.0775685031622
 30
0.0
 11
3490.980789482706
 21
923.0775685031622
 31
0.0
  0
LINE
  5
182
330
1F
100
AcDbEntity
  8
STR
100
AcDbLine
 10
3490.980789482706
 20
923.0775685031622
 30
0.0
 11
3490.980789482706
 21
967.6657985787933
 31
0.0
  0
LINE
  5
183
330
1F
100
AcDbEntity
  8
STR
100
AcDbLine
 10
3416.757716544651
 20
847.5282510716752
 30
0.0
 11
4316.757716544652
 21
847.5282510716752
 31
0.0
  0
LINE
  5
184
330
1F
100
AcDbEntity
  8
STR
100
AcDbLine
 10
3416.757716544651
 20
847.5282510716752
 30
0.0
 11
3416.757716544653
 21
812.5498969184301
 31
0.0
  0
LINE
  5
185
330
1F
100
AcDbEntity
  8
STR
100
AcDbLine
 10
4316.757716544652
 20
847.5282510716752
 30
0.0
 11
4316.757716544652
 21
812.5498969184301
 31
0.0
  0
LINE
  5
186
330
1F
100
AcDbEntity
  8
STR
100
AcDbLine
 10
3555.534811858427
 20
967.6657985787933
 30
0.0
 11
3555.534811858427
 21
847.5282510716752
 31
0.0
  0
LINE
  5
187
330
1F
100
AcDbEntity
  8
STR
100
AcDbLine
 10
3509.809382362655
 20
967.6657985787933
 30
0.0
 11
3509.809382362655
 21
847.5282510716752
 31
0.0
  0
LINE
  5
188
330
1F
100
AcDbEntity
  8
STR
100
AcDbLine
 10
4177.980621230878
 20
967.6657985787933
 30
0.0
 11
4177.980621230878
 21
847.5282510716752
 31
0.0
  0
LINE
  5
189
330
1F
100
AcDbEntity
  8
STR
100
AcDbLine
 10
4223.70605072665
 20
967.6657985787933
 30
0.0
 11
4223.70605072665
 21
847.5282510716752
 31
0.0
  0
LINE
  5
18A
330
1F
100
AcDbEntity
  8
STR
100
AcDbLine
 10
3416.757716544653
 20
812.5498969184301
 30
0.0
 11
4316.757716544652
 21
812.5498969184301
 31
0.0
  0
LINE
  5
18B
330
1F
100
AcDbEntity
  8
STR
100
AcDbLine
 10
3366.757716544653
 20
1068.38163100247
 30
0.0
 11
3366.757716544653
 21
923.0775685031622
 31
0.0
  0
LINE
  5
18C
330
1F
100
AcDbEntity
  8
STR
100
AcDbLine
 10
4366.757716544653
 20
1068.38163100247
 30
0.0
 11
4366.757716544653
 21
923.0775685031622
 31
0.0
  0
LINE
  5
198
330
1F
100
AcDbEntity
  8
BMK
100
AcDbLine
 10
3866.757716544653
 20
1068.38163100247
 30
0.0
 11
3866.757716544653
 21
812.5498969184301
 31
0.0
  0
CIRCLE
  5
1A4
330
1F
100
AcDbEntity
  8
STR
100
AcDbCircle
 10
3866.757716544653
 20
940.4657639604504
 30
0.0
 40
65.59602631549005
  0
LINE
  5
1A5
330
1F
100
AcDbEntity
  8
STR
100
AcDbLine
 10
3677.53193351507
 20
847.5282510716752
 30
0.0
 11
3677.53193351507
 21
919.1623052014037
 31
0.0
  0
LINE
  5
1A6
330
1F
100
AcDbEntity
  8
STR
100
AcDbLine
 10
3677.53193351507
 20
919.1623052014037
 30
0.0
 11
3804.71739648355
 21
919.1623052014037
 31
0.0
  0
LINE
  5
1A7
330
1F
100
AcDbEntity
  8
STR
100
AcDbLine
 10
3677.53193351507
 20
883.3452781365394
 30
0.0
 11
3834.507309297256
 21
883.3452781365396
 31
0.0
  0
LINE
  5
1A8
330
1F
100
AcDbEntity
  8
STR
100
AcDbLine
 10
4055.983499574234
 20
847.5282510716752
 30
0.0
 11
4055.983499574234
 21
919.1623052014037
 31
0.0
  0
LINE
  5
1A9
330
1F
100
AcDbEntity
  8
STR
100
AcDbLine
 10
4055.983499574234
 20
919.1623052014037
 30
0.0
 11
3928.798036605755
 21
919.1623052014037
 31
0.0
  0
LINE
  5
1AA
330
1F
100
AcDbEntity
  8
STR
100
AcDbLine
 10
4055.983499574234
 20
883.3452781365394
 30
0.0
 11
3899.008123792048
 21
883.3452781365396
 31
0.0
  0
LINE
  5
1AB
330
1F
100
AcDbEntity
  8
STR
100
AcDbLine
 10
3932.353742860143
 20
940.4657639604504
 30
0.0
 11
3801.161690229163
 21
940.4657639604504
 31
0.0
  0
LINE
  5
1B7
330
1F
100
AcDbEntity
  8
STR
100
AcDbLine
 10
3685.320507284771
 20
1027.906406372414
 30
0.0
 11
3685.320507284771
 21
979.9817935660176
 31
0.0
  0
LINE
  5
1B8
330
1F
100
AcDbEntity
  8
STR
100
AcDbLine
 10
3685.320507284771
 20
979.9817935660176
 30
0.0
 11
3814.400080305089
 21
979.9817935660176
 31
0.0
  0
LINE
  5
1BA
330
1F
100
AcDbEntity
  8
STR
100
AcDbLine
 10
4048.194925804536
 20
1027.906406372414
 30
0.0
 11
4048.194925804536
 21
979.9817935660176
 31
0.0
  0
LINE
  5
1BB
330
1F
100
AcDbEntity
  8
STR
100
AcDbLine
 10
4048.194925804536
 20
979.9817935660176
 30
0.0
 11
3919.115352784217
 21
979.9817935660176
 31
0.0
  0
LINE
  5
1BC
330
1F
100
AcDbEntity
  8
STR
100
AcDbLine
 10
3416.757716544653
 20
1067.812195469505
 30
0.0
 11
3416.757716544653
 21
1173.560046334918
 31
0.0
  0
LINE
  5
1BD
330
1F
100
AcDbEntity
  8
STR
100
AcDbLine
 10
3416.757716544653
 20
1173.560046334918
 30
0.0
 11
3490.980789482706
 21
1173.560046334918
 31
0.0
  0
LINE
  5
1BF
330
1F
100
AcDbEntity
  8
STR
100
AcDbLine
 10
3490.980789482706
 20
1068.38163100247
 30
0.0
 11
3490.980789482706
 21
1173.560046334918
 31
0.0
  0
LINE
  5
1C0
330
1F
100
AcDbEntity
  8
STR
100
AcDbLine
 10
3509.809382362655
 20
1068.38163100247
 30
0.0
 11
3509.809382362655
 21
1134.943283332129
 31
0.0
  0
LINE
  5
1C1
330
1F
100
AcDbEntity
  8
STR
100
AcDbLine
 10
3509.809382362655
 20
1134.943283332129
 30
0.0
 11
3601.191295949472
 21
1134.943283332129
 31
0.0
  0
LINE
  5
1C2
330
1F
100
AcDbEntity
  8
STR
100
AcDbLine
 10
3608.580200838839
 20
1068.38163100247
 30
0.0
 11
3608.580200838838
 21
1176.366122857871
 31
0.0
  0
LINE
  5
1C3
330
1F
100
AcDbEntity
  8
STR
100
AcDbLine
 10
3608.580200838838
 20
1176.366122857871
 30
0.0
 11
3677.637966915783
 21
1176.366122857871
 31
0.0
  0
LINE
  5
1C4
330
1F
100
AcDbEntity
  8
STR
100
AcDbLine
 10
3677.637966915783
 20
1176.366122857871
 30
0.0
 11
3677.637966915783
 21
1068.38163100247
 31
0.0
  0
LINE
  5
1C5
330
1F
100
AcDbEntity
  8
STR
100
AcDbLine
 10
3601.191295949472
 20
1134.943283332129
 30
0.0
 11
3601.191295949472
 21
1068.38163100247
 31
0.0
  0
LINE
  5
1C6
330
1F
100
AcDbEntity
  8
STR
100
AcDbLine
 10
4316.757716544652
 20
1067.812195469505
 30
0.0
 11
4316.757716544652
 21
1173.560046334918
 31
0.0
  0
LINE
  5
1C7
330
1F
100
AcDbEntity
  8
STR
100
AcDbLine
 10
4316.757716544652
 20
1173.560046334918
 30
0.0
 11
4242.534643606599
 21
1173.560046334918
 31
0.0
  0
LINE
  5
1C8
330
1F
100
AcDbEntity
  8
STR
100
AcDbLine
 10
4242.534643606599
 20
1068.38163100247
 30
0.0
 11
4242.534643606599
 21
1173.560046334918
 31
0.0
  0
LINE
  5
1C9
330
1F
100
AcDbEntity
  8
STR
100
AcDbLine
 10
4223.70605072665
 20
1068.38163100247
 30
0.0
 11
4223.70605072665
 21
1134.943283332129
 31
0.0
  0
LINE
  5
1CA
330
1F
100
AcDbEntity
  8
STR
100
AcDbLine
 10
4223.70605072665
 20
1134.943283332129
 30
0.0
 11
4132.324137139832
 21
1134.943283332129
 31
0.0
  0
LINE
  5
1CB
330
1F
100
AcDbEntity
  8
STR
100
AcDbLine
 10
4124.935232250466
 20
1068.38163100247
 30
0.0
 11
4124.935232250467
 21
1176.366122857871
 31
0.0
  0
LINE
  5
1CC
330
1F
100
AcDbEntity
  8
STR
100
AcDbLine
 10
4124.935232250467
 20
1176.366122857871
 30
0.0
 11
4055.877466173522
 21
1176.366122857871
 31
0.0
  0
LINE
  5
1CD
330
1F
100
AcDbEntity
  8
STR
100
AcDbLine
 10
4055.877466173522
 20
1176.366122857871
 30
0.0
 11
4055.877466173522
 21
1068.38163100247
 31
0.0
  0
LINE
  5
1CE
330
1F
100
AcDbEntity
  8
STR
100
AcDbLine
 10
4132.324137139832
 20
1134.943283332129
 30
0.0
 11
4132.324137139832
 21
1068.38163100247
 31
0.0
  0
LINE
  5
1CF
330
1F
100
AcDbEntity
  8
BMK
100
AcDbLine
 10
3643.109083877311
 20
1176.366122857871
 30
0.0
 11
3643.109083877311
 21
925.2383972554563
 31
0.0
  0
LINE
  5
1D0
330
1F
100
AcDbEntity
  8
BMK
100
AcDbLine
 10
4090.406349211995
 20
1176.366122857871
 30
0.0
 11
4090.406349211995
 21
925.2383972554563
 31
0.0
  0
LINE
  5
1DD
330
1F
100
AcDbEntity
  8
STR
100
AcDbLine
 10
3587.486179910127
 20
2062.549896918429
 30
0.0
 11
3426.757716544653
 21
1935.789176761885
 31
0.0
  0
LINE
  5
1DE
330
1F
100
AcDbEntity
  8
STR
100
AcDbLine
 10
3608.580200838838
 20
1149.08581290288
 30
0.0
 11
3426.757716544653
 21
1292.482623692859
 31
0.0
  0
LINE
  5
1DF
330
1F
100
AcDbEntity
  8
STR
100
AcDbLine
 10
3426.757716544653
 20
1292.482623692859
 30
0.0
 11
3426.757716544653
 21
1935.789176761885
 31
0.0
  0
LINE
  5
1E0
330
1F
100
AcDbEntity
  8
STR
100
AcDbLine
 10
4146.029253179178
 20
2062.549896918429
 30
0.0
 11
4306.757716544653
 21
1935.789176761885
 31
0.0
  0
LINE
  5
1E2
330
1F
100
AcDbEntity
  8
STR
100
AcDbLine
 10
4306.757716544653
 20
1292.482623692859
 30
0.0
 11
4306.757716544653
 21
1935.789176761885
 31
0.0
  0
CIRCLE
  5
1E3
330
1F
100
AcDbEntity
  8
STR
100
AcDbCircle
 10
3866.757716544653
 20
1587.54989691843
 30
0.0
 40
47.56389028580669
  0
CIRCLE
  5
1E4
330
1F
100
AcDbEntity
  8
STR
100
AcDbCircle
 10
3866.757716544653
 20
1587.54989691843
 30
0.0
 40
143.3898892527044
  0
CIRCLE
  5
1E5
330
1F
100
AcDbEntity
  8
STR
100
AcDbCircle
 10
3866.757716544653
 20
1587.54989691843
 30
0.0
 40
263.5902126193423
  0
CIRCLE
  5
1E6
330
1F
100
AcDbEntity
  8
STR
100
AcDbCircle
 10
3866.757716544653
 20
1587.54989691843
 30
0.0
 40
381.512513590677
  0
LINE
  5
1E7
330
1F
100
AcDbEntity
  8
STR
100
AcDbLine
 10
3587.486179910127
 20
2062.549896918429
 30
0.0
 11
4150.636521918033
 21
2062.549896918429
 31
0.0
  0
LINE
  5
1F8
330
1F
100
AcDbEntity
  8
STR
100
AcDbLine
 10
3789.55393072285
 20
1928.343895359573
 30
0.0
 11
3789.553930722851
 21
1773.93632371597
 31
0.0
  0
LINE
  5
1F9
330
1F
100
AcDbEntity
  8
STR
100
AcDbLine
 10
3943.961502366453
 20
1928.343895359573
 30
0.0
 11
3943.961502366454
 21
1773.93632371597
 31
0.0
  0
LINE
  5
222
330
1F
100
AcDbEntity
  8
BMK
100
AcDbLine
 10
3982.371246350251
 20
1703.16342672403
 30
0.0
 11
4125.357927171658
 21
1846.150107545436
 31
0.0
  0
LINE
  5
24A
330
1F
100
AcDbEntity
  8
STR
100
AcDbLine
 10
3426.757716544653
 20
1449.083763128891
 30
0.0
 11
3511.259576156191
 21
1449.083763128891
 31
0.0
  0
LINE
  5
24B
330
1F
100
AcDbEntity
  8
STR
100
AcDbLine
 10
4222.255856933116
 20
1449.083763128896
 30
0.0
 11
4306.757716544653
 21
1449.083763128896
 31
0.0
  0
LINE
  5
24C
330
1F
100
AcDbEntity
  8
STR
100
AcDbLine
 10
4124.935232250467
 20
1149.08581290288
 30
0.0
 11
4306.757716544653
 21
1292.482623692859
 31
0.0
  0
ARC
  5
24D
330
1F
100
AcDbEntity
  8
STR
100
AcDbCircle
 10
3866.757716544653
 20
1587.54989691843
 30
0.0
 40
603.9840850003347
100
AcDbArc
 50
217.3423697340475
 51
322.6576302659524
  0
LINE
  5
24F
330
1F
100
AcDbEntity
  8
STR
100
AcDbLine
 10
3677.637966915783
 20
1075.038885249298
 30
0.0
 11
4055.877466173521
 21
1075.038885249297
 31
0.0
  0
TEXT
  5
481
330
1F
100
AcDbEntity
  8
STR
100
AcDbText
 10
1947.09312171346
 20
2996.123063011225
 30
0.0
 40
60.0
  1
3-2-6 KYT-8090WH
 41
0.8
100
AcDbText
  0
LINE
  5
702
330
1F
100
AcDbEntity
  8
STR
100
AcDbLine
 10
795.0629923439882
 20
1206.037383327753
 30
0.0
 11
651.5381298732536
 21
1206.037383327753
 31
0.0
  0
LINE
  5
707
330
1F
100
AcDbEntity
  8
STR
100
AcDbLine
 10
834.1690573583074
 20
1112.549896918431
 30
0.0
 11
878.9013616475529
 21
1112.549896918431
 31
0.0
  0
LINE
  5
708
330
1F
100
AcDbEntity
  8
STR
100
AcDbLine
 10
953.2236596055918
 20
1134.35417778571
 30
0.0
 11
878.901361647553
 21
1134.35417778571
 31
0.0
  0
LINE
  5
709
330
1F
100
AcDbEntity
  8
STR
100
AcDbLine
 10
953.2236596055918
 20
1134.35417778571
 30
0.0
 11
1027.54595756363
 21
1134.35417778571
 31
0.0
  0
LINE
  5
70A
330
1F
100
AcDbEntity
  8
STR
100
AcDbLine
 10
1072.278261852876
 20
1112.549896918431
 30
0.0
 11
1027.54595756363
 21
1112.549896918431
 31
0.0
  0
LINE
  5
830
330
1F
100
AcDbEntity
  8
BMK
100
AcDbLine
 10
3453.86925301368
 20
1173.560046334918
 30
0.0
 11
3453.86925301368
 21
922.4323207325033
 31
0.0
  0
LINE
  5
831
330
1F
100
AcDbEntity
  8
BMK
100
AcDbLine
 10
4279.646180075626
 20
1173.560046334918
 30
0.0
 11
4279.646180075626
 21
922.4323207325033
 31
0.0
  0
CIRCLE
  5
835
330
1F
100
AcDbEntity
  8
STR
100
AcDbCircle
 10
3866.757716544653
 20
1851.140109537772
 30
0.0
 40
57.20378582180183
  0
LINE
  5
836
330
1F
100
AcDbEntity
  8
STR
100
AcDbLine
 10
3943.961502366454
 20
1928.343895359574
 30
0.0
 11
3789.55393072285
 21
1928.343895359573
 31
0.0
  0
LINE
  5
837
330
1F
100
AcDbEntity
  8
STR
100
AcDbLine
 10
3571.188648771371
 20
1773.936323715969
 30
0.0
 11
3680.371289747112
 21
1664.75368274023
 31
0.0
  0
LINE
  5
838
330
1F
100
AcDbEntity
  8
STR
100
AcDbLine
 10
3680.371289747111
 20
1883.118964691708
 30
0.0
 11
3789.553930722851
 21
1773.93632371597
 31
0.0
  0
CIRCLE
  5
839
330
1F
100
AcDbEntity
  8
STR
100
AcDbCircle
 10
3680.371289747111
 20
1773.93632371597
 30
0.0
 40
57.20378582180183
  0
LINE
  5
83A
330
1F
100
AcDbEntity
  8
STR
100
AcDbLine
 10
3680.371289747111
 20
1883.11896469171
 30
0.0
 11
3571.188648771371
 21
1773.936323715969
 31
0.0
  0
LINE
  5
83B
330
1F
100
AcDbEntity
  8
STR
100
AcDbLine
 10
3525.963718103509
 20
1510.346111096627
 30
0.0
 11
3680.371289747112
 21
1510.346111096628
 31
0.0
  0
LINE
  5
83C
330
1F
100
AcDbEntity
  8
STR
100
AcDbLine
 10
3525.963718103509
 20
1664.75368274023
 30
0.0
 11
3680.371289747112
 21
1664.75368274023
 31
0.0
  0
CIRCLE
  5
83D
330
1F
100
AcDbEntity
  8
STR
100
AcDbCircle
 10
3603.167503925311
 20
1587.549896918429
 30
0.0
 40
57.20378582180183
  0
LINE
  5
83E
330
1F
100
AcDbEntity
  8
STR
100
AcDbLine
 10
3525.963718103509
 20
1664.75368274023
 30
0.0
 11
3525.963718103509
 21
1510.346111096627
 31
0.0
  0
LINE
  5
83F
330
1F
100
AcDbEntity
  8
STR
100
AcDbLine
 10
3680.371289747114
 20
1291.980829145149
 30
0.0
 11
3789.553930722853
 21
1401.163470120889
 31
0.0
  0
LINE
  5
840
330
1F
100
AcDbEntity
  8
STR
100
AcDbLine
 10
3571.188648771375
 20
1401.163470120889
 30
0.0
 11
3680.371289747113
 21
1510.346111096628
 31
0.0
  0
CIRCLE
  5
841
330
1F
100
AcDbEntity
  8
STR
100
AcDbCircle
 10
3680.371289747111
 20
1401.163470120889
 30
0.0
 40
57.20378582180183
  0
LINE
  5
842
330
1F
100
AcDbEntity
  8
STR
100
AcDbLine
 10
3571.188648771373
 20
1401.163470120888
 30
0.0
 11
3680.371289747114
 21
1291.980829145149
 31
0.0
  0
LINE
  5
843
330
1F
100
AcDbEntity
  8
STR
100
AcDbLine
 10
3943.961502366454
 20
1246.755898477286
 30
0.0
 11
3943.961502366454
 21
1401.163470120889
 31
0.0
  0
LINE
  5
844
330
1F
100
AcDbEntity
  8
STR
100
AcDbLine
 10
3789.553930722851
 20
1246.755898477286
 30
0.0
 11
3789.553930722851
 21
1401.163470120889
 31
0.0
  0
CIRCLE
  5
845
330
1F
100
AcDbEntity
  8
STR
100
AcDbCircle
 10
3866.757716544651
 20
1323.959684299087
 30
0.0
 40
57.20378582180183
  0
LINE
  5
846
330
1F
100
AcDbEntity
  8
STR
100
AcDbLine
 10
3789.55393072285
 20
1246.755898477285
 30
0.0
 11
3943.961502366454
 21
1246.755898477286
 31
0.0
  0
LINE
  5
847
330
1F
100
AcDbEntity
  8
STR
100
AcDbLine
 10
4162.326784317934
 20
1401.16347012089
 30
0.0
 11
4053.144143342193
 21
1510.346111096629
 31
0.0
  0
LINE
  5
848
330
1F
100
AcDbEntity
  8
STR
100
AcDbLine
 10
4053.144143342193
 20
1291.980829145151
 30
0.0
 11
3943.961502366454
 21
1401.163470120889
 31
0.0
  0
CIRCLE
  5
849
330
1F
100
AcDbEntity
  8
STR
100
AcDbCircle
 10
4053.144143342192
 20
1401.163470120888
 30
0.0
 40
57.20378582180183
  0
LINE
  5
84A
330
1F
100
AcDbEntity
  8
STR
100
AcDbLine
 10
4053.144143342193
 20
1291.98082914515
 30
0.0
 11
4162.326784317934
 21
1401.16347012089
 31
0.0
  0
LINE
  5
84B
330
1F
100
AcDbEntity
  8
STR
100
AcDbLine
 10
4207.551714985796
 20
1664.753682740232
 30
0.0
 11
4053.144143342193
 21
1664.753682740232
 31
0.0
  0
LINE
  5
84C
330
1F
100
AcDbEntity
  8
STR
100
AcDbLine
 10
4207.551714985796
 20
1510.34611109663
 30
0.0
 11
4053.144143342193
 21
1510.346111096629
 31
0.0
  0
CIRCLE
  5
84D
330
1F
100
AcDbEntity
  8
STR
100
AcDbCircle
 10
4130.347929163995
 20
1587.54989691843
 30
0.0
 40
57.20378582180183
  0
LINE
  5
84E
330
1F
100
AcDbEntity
  8
STR
100
AcDbLine
 10
4207.551714985797
 20
1510.346111096629
 30
0.0
 11
4207.551714985796
 21
1664.753682740232
 31
0.0
  0
LINE
  5
84F
330
1F
100
AcDbEntity
  8
STR
100
AcDbLine
 10
4053.144143342193
 20
1883.11896469171
 30
0.0
 11
3943.961502366454
 21
1773.936323715971
 31
0.0
  0
LINE
  5
850
330
1F
100
AcDbEntity
  8
STR
100
AcDbLine
 10
4162.326784317932
 20
1773.936323715971
 30
0.0
 11
4053.144143342193
 21
1664.753682740231
 31
0.0
  0
CIRCLE
  5
851
330
1F
100
AcDbEntity
  8
STR
100
AcDbCircle
 10
4053.144143342195
 20
1773.936323715971
 30
0.0
 40
57.20378582180183
  0
LINE
  5
852
330
1F
100
AcDbEntity
  8
STR
100
AcDbLine
 10
4162.326784317934
 20
1773.936323715971
 30
0.0
 11
4053.144143342193
 21
1883.11896469171
 31
0.0
  0
LINE
  5
854
330
1F
100
AcDbEntity
  8
BMK
100
AcDbLine
 10
3751.144186739052
 20
1703.163426724028
 30
0.0
 11
3608.157505917646
 21
1846.150107545435
 31
0.0
  0
LINE
  5
856
330
1F
100
AcDbEntity
  8
BMK
100
AcDbLine
 10
3751.144186739053
 20
1471.93636711283
 30
0.0
 11
3608.157505917645
 21
1328.949686291424
 31
0.0
  0
LINE
  5
858
330
1F
100
AcDbEntity
  8
BMK
100
AcDbLine
 10
3982.371246350252
 20
1471.936367112831
 30
0.0
 11
4125.357927171658
 21
1328.949686291424
 31
0.0
  0
LINE
  5
85C
330
1F
100
AcDbEntity
  8
STR
100
AcDbLine
 10
834.1690573583074
 20
1928.343895359573
 30
0.0
 11
651.5381298732536
 21
1928.343895359573
 31
0.0
  0
LINE
  5
85D
330
1F
100
AcDbEntity
  8
STR
100
AcDbLine
 10
795.0629923439882
 20
1246.755898477287
 30
0.0
 11
651.5381298732536
 21
1246.755898477287
 31
0.0
  0
LINE
  5
971
330
1F
100
AcDbEntity
  8
STR
100
AcDbLine
 10
3789.553930722851
 20
1773.936323715971
 30
0.0
 11
3680.371289747111
 21
1664.75368274023
 31
0.0
  0
LINE
  5
972
330
1F
100
AcDbEntity
  8
STR
100
AcDbLine
 10
3680.371289747111
 20
1664.75368274023
 30
0.0
 11
3680.371289747111
 21
1510.346111096628
 31
0.0
  0
LINE
  5
973
330
1F
100
AcDbEntity
  8
STR
100
AcDbLine
 10
3680.371289747111
 20
1510.346111096628
 30
0.0
 11
3789.553930722851
 21
1401.163470120889
 31
0.0
  0
LINE
  5
974
330
1F
100
AcDbEntity
  8
STR
100
AcDbLine
 10
3789.553930722851
 20
1401.163470120889
 30
0.0
 11
3943.961502366454
 21
1401.16347012089
 31
0.0
  0
LINE
  5
975
330
1F
100
AcDbEntity
  8
STR
100
AcDbLine
 10
3943.961502366454
 20
1401.16347012089
 30
0.0
 11
4053.144143342192
 21
1510.346111096629
 31
0.0
  0
LINE
  5
976
330
1F
100
AcDbEntity
  8
STR
100
AcDbLine
 10
4053.144143342192
 20
1510.346111096629
 30
0.0
 11
4053.144143342193
 21
1664.753682740232
 31
0.0
  0
LINE
  5
977
330
1F
100
AcDbEntity
  8
STR
100
AcDbLine
 10
4053.144143342193
 20
1664.753682740232
 30
0.0
 11
3943.961502366454
 21
1773.93632371597
 31
0.0
  0
LINE
  5
978
330
1F
100
AcDbEntity
  8
STR
100
AcDbLine
 10
3943.961502366454
 20
1773.93632371597
 30
0.0
 11
3789.553930722851
 21
1773.936323715971
 31
0.0
  0
LINE
  5
979
330
1F
100
AcDbEntity
  8
STR
100
AcDbLine
 10
795.0629923439882
 20
1441.641433060967
 30
0.0
 11
802.5053224118995
 21
1449.083763128878
 31
0.0
  0
LINE
  5
97A
330
1F
100
AcDbEntity
  8
STR
100
AcDbLine
 10
795.0629923439885
 20
1414.700664697759
 30
0.0
 11
829.4460907751066
 21
1449.083763128878
 31
0.0
  0
LINE
  5
97B
330
1F
100
AcDbEntity
  8
STR
100
AcDbLine
 10
795.0629923439882
 20
1387.759896334552
 30
0.0
 11
834.169057358307
 21
1426.865961348871
 31
0.0
  0
LINE
  5
97C
330
1F
100
AcDbEntity
  8
STR
100
AcDbLine
 10
795.0629923439882
 20
1360.819127971344
 30
0.0
 11
834.169057358307
 21
1399.925192985663
 31
0.0
  0
LINE
  5
97D
330
1F
100
AcDbEntity
  8
STR
100
AcDbLine
 10
795.0629923439884
 20
1333.878359608137
 30
0.0
 11
834.169057358307
 21
1372.984424622456
 31
0.0
  0
LINE
  5
97E
330
1F
100
AcDbEntity
  8
STR
100
AcDbLine
 10
795.0629923439882
 20
1306.937591244929
 30
0.0
 11
834.169057358307
 21
1346.043656259248
 31
0.0
  0
LINE
  5
97F
330
1F
100
AcDbEntity
  8
STR
100
AcDbLine
 10
795.0629923439885
 20
1279.996822881722
 30
0.0
 11
834.1690573583068
 21
1319.10288789604
 31
0.0
  0
LINE
  5
980
330
1F
100
AcDbEntity
  8
STR
100
AcDbLine
 10
795.0629923439882
 20
1253.056054518514
 30
0.0
 11
834.169057358307
 21
1292.162119532833
 31
0.0
  0
LINE
  5
981
330
1F
100
AcDbEntity
  8
STR
100
AcDbLine
 10
795.0629923439882
 20
1226.115286155307
 30
0.0
 11
834.169057358307
 21
1265.221351169626
 31
0.0
  0
LINE
  5
982
330
1F
100
AcDbEntity
  8
STR
100
AcDbLine
 10
795.0629923439882
 20
1199.1745177921
 30
0.0
 11
834.1690573583068
 21
1238.280582806418
 31
0.0
  0
LINE
  5
983
330
1F
100
AcDbEntity
  8
STR
100
AcDbLine
 10
795.0629923439882
 20
1172.233749428892
 30
0.0
 11
834.169057358307
 21
1211.339814443211
 31
0.0
  0
LINE
  5
984
330
1F
100
AcDbEntity
  8
STR
100
AcDbLine
 10
795.0629923439884
 20
1145.292981065685
 30
0.0
 11
834.1690573583068
 21
1184.399046080003
 31
0.0
  0
LINE
  5
985
330
1F
100
AcDbEntity
  8
STR
100
AcDbLine
 10
1072.278261852876
 20
1422.508250574573
 30
0.0
 11
1098.853774407181
 21
1449.083763128878
 31
0.0
  0
LINE
  5
986
330
1F
100
AcDbEntity
  8
STR
100
AcDbLine
 10
795.0629923439882
 20
1118.352212702477
 30
0.0
 11
834.1690573583067
 21
1157.458277716796
 31
0.0
  0
LINE
  5
987
330
1F
100
AcDbEntity
  8
STR
100
AcDbLine
 10
1072.278261852876
 20
1395.567482211365
 30
0.0
 11
1111.384326867195
 21
1434.673547225685
 31
0.0
  0
LINE
  5
988
330
1F
100
AcDbEntity
  8
STR
100
AcDbLine
 10
795.0629923439882
 20
1091.411444339269
 30
0.0
 11
834.169057358307
 21
1130.517509353588
 31
0.0
  0
LINE
  5
989
330
1F
100
AcDbEntity
  8
STR
100
AcDbLine
 10
1072.278261852876
 20
1368.626713848158
 30
0.0
 11
1111.384326867195
 21
1407.732778862477
 31
0.0
  0
LINE
  5
98A
330
1F
100
AcDbEntity
  8
STR
100
AcDbLine
 10
798.9739473703964
 20
1068.38163100247
 30
0.0
 11
834.1690573583068
 21
1103.576740990381
 31
0.0
  0
LINE
  5
98B
330
1F
100
AcDbEntity
  8
STR
100
AcDbLine
 10
1072.278261852876
 20
1341.685945484951
 30
0.0
 11
1111.384326867195
 21
1380.79201049927
 31
0.0
  0
LINE
  5
98C
330
1F
100
AcDbEntity
  8
STR
100
AcDbLine
 10
825.9147157336039
 20
1068.38163100247
 30
0.0
 11
858.202662278177
 21
1100.669577547043
 31
0.0
  0
LINE
  5
98D
330
1F
100
AcDbEntity
  8
STR
100
AcDbLine
 10
1072.278261852876
 20
1314.745177121743
 30
0.0
 11
1111.384326867195
 21
1353.851242136062
 31
0.0
  0
LINE
  5
98E
330
1F
100
AcDbEntity
  8
STR
100
AcDbLine
 10
852.8554840968112
 20
1068.38163100247
 30
0.0
 11
885.1434306413846
 21
1100.669577547044
 31
0.0
  0
LINE
  5
98F
330
1F
100
AcDbEntity
  8
STR
100
AcDbLine
 10
1072.278261852876
 20
1287.804408758535
 30
0.0
 11
1111.384326867195
 21
1326.910473772854
 31
0.0
  0
LINE
  5
990
330
1F
100
AcDbEntity
  8
STR
100
AcDbLine
 10
879.7962524600187
 20
1068.38163100247
 30
0.0
 11
912.0841990045921
 21
1100.669577547044
 31
0.0
  0
LINE
  5
991
330
1F
100
AcDbEntity
  8
STR
100
AcDbLine
 10
1072.278261852876
 20
1260.863640395328
 30
0.0
 11
1111.384326867195
 21
1299.969705409647
 31
0.0
  0
LINE
  5
992
330
1F
100
AcDbEntity
  8
STR
100
AcDbLine
 10
906.7370208232263
 20
1068.38163100247
 30
0.0
 11
939.0249673677995
 21
1100.669577547044
 31
0.0
  0
LINE
  5
993
330
1F
100
AcDbEntity
  8
STR
100
AcDbLine
 10
1072.278261852876
 20
1233.922872032121
 30
0.0
 11
1111.384326867195
 21
1273.02893704644
 31
0.0
  0
LINE
  5
994
330
1F
100
AcDbEntity
  8
STR
100
AcDbLine
 10
933.6777891864336
 20
1068.38163100247
 30
0.0
 11
965.965735731007
 21
1100.669577547044
 31
0.0
  0
LINE
  5
995
330
1F
100
AcDbEntity
  8
STR
100
AcDbLine
 10
1072.278261852876
 20
1206.982103668913
 30
0.0
 11
1111.384326867195
 21
1246.088168683232
 31
0.0
  0
LINE
  5
996
330
1F
100
AcDbEntity
  8
STR
100
AcDbLine
 10
960.6185575496413
 20
1068.38163100247
 30
0.0
 11
992.9065040942147
 21
1100.669577547044
 31
0.0
  0
LINE
  5
997
330
1F
100
AcDbEntity
  8
STR
100
AcDbLine
 10
1072.278261852876
 20
1180.041335305706
 30
0.0
 11
1111.384326867195
 21
1219.147400320024
 31
0.0
  0
LINE
  5
998
330
1F
100
AcDbEntity
  8
STR
100
AcDbLine
 10
987.5593259128486
 20
1068.38163100247
 30
0.0
 11
1019.847272457421
 21
1100.669577547043
 31
0.0
  0
LINE
  5
999
330
1F
100
AcDbEntity
  8
STR
100
AcDbLine
 10
1072.278261852876
 20
1153.100566942498
 30
0.0
 11
1111.384326867195
 21
1192.206631956817
 31
0.0
  0
LINE
  5
99A
330
1F
100
AcDbEntity
  8
STR
100
AcDbLine
 10
1014.500094276056
 20
1068.38163100247
 30
0.0
 11
1046.788040820629
 21
1100.669577547044
 31
0.0
  0
LINE
  5
99B
330
1F
100
AcDbEntity
  8
STR
100
AcDbLine
 10
1072.278261852876
 20
1126.159798579291
 30
0.0
 11
1111.384326867195
 21
1165.26586359361
 31
0.0
  0
LINE
  5
99C
330
1F
100
AcDbEntity
  8
STR
100
AcDbLine
 10
1041.440862639263
 20
1068.38163100247
 30
0.0
 11
1111.384326867195
 21
1138.325095230402
 31
0.0
  0
LINE
  5
99D
330
1F
100
AcDbEntity
  8
STR
100
AcDbLine
 10
1068.38163100247
 20
1068.38163100247
 30
0.0
 11
1111.384326867195
 21
1111.384326867195
 31
0.0
  0
LINE
  5
99E
330
1F
100
AcDbEntity
  8
STR
100
AcDbLine
 10
1095.322399365678
 20
1068.38163100247
 30
0.0
 11
1111.384326867195
 21
1084.443558503987
 31
0.0
  0
LINE
  5
99F
330
1F
100
AcDbEntity
  8
STR
100
AcDbLine
 10
3416.757716544653
 20
781.92489691843
 30
0.0
 11
3416.757716544653
 21
599.4704817981946
 31
0.0
  0
LINE
  5
9A0
330
1F
100
AcDbEntity
  8
STR
100
AcDbLine
 10
4316.757716544652
 20
781.92489691843
 30
0.0
 11
4316.757716544652
 21
599.4704817981946
 31
0.0
  0
LINE
  5
9A1
330
1F
100
AcDbEntity
  8
STR
100
AcDbLine
 10
3436.757716544653
 20
600.7204817981946
 30
0.0
 11
4296.757716544653
 21
600.7204817981946
 31
0.0
  0
LINE
  5
9A5
330
1F
100
AcDbEntity
  8
STR
100
AcDbLine
 10
3366.757716544654
 20
781.29989691843
 30
0.0
 11
3366.757716544654
 21
460.3974537845424
 31
0.0
  0
LINE
  5
9A6
330
1F
100
AcDbEntity
  8
STR
100
AcDbLine
 10
4366.757716544653
 20
781.29989691843
 30
0.0
 11
4366.757716544653
 21
460.3974537845424
 31
0.0
  0
LINE
  5
9A7
330
1F
100
AcDbEntity
  8
STR
100
AcDbLine
 10
3386.757716544654
 20
461.6474537845424
 30
0.0
 11
4346.757716544653
 21
461.6474537845424
 31
0.0
  0
LINE
  5
9AB
330
1F
100
AcDbEntity
  8
STR
100
AcDbLine
 10
4599.94071299976
 20
1587.54989691843
 30
0.0
 11
4599.31571299976
 21
1587.54989691843
 31
0.0
  0
LINE
  5
9AC
330
1F
100
AcDbEntity
  8
STR
100
AcDbLine
 10
4368.007716544652
 20
812.5498969184301
 30
0.0
 11
4601.815712999759
 21
812.5498969184301
 31
0.0
  0
LINE
  5
9AD
330
1F
100
AcDbEntity
  8
STR
100
AcDbLine
 10
4600.56571299976
 20
1567.54989691843
 30
0.0
 11
4600.56571299976
 21
832.54989691843
 31
0.0
  0
LINE
  5
9B1
330
1F
100
AcDbEntity
  8
STR
100
AcDbLine
 10
4337.382716544652
 20
2062.549896918429
 30
0.0
 11
4783.926843724255
 21
2062.549896918429
 31
0.0
  0
LINE
  5
9B2
330
1F
100
AcDbEntity
  8
STR
100
AcDbLine
 10
4367.382716544653
 20
812.5498969184301
 30
0.0
 11
4783.926843724254
 21
812.5498969184301
 31
0.0
  0
LINE
  5
9B3
330
1F
100
AcDbEntity
  8
STR
100
AcDbLine
 10
4782.676843724253
 20
2042.549896918429
 30
0.0
 11
4782.676843724253
 21
832.54989691843
 31
0.0
  0
LINE
  5
9B7
330
1F
100
AcDbEntity
  8
STR
100
AcDbLine
 10
3426.757716544653
 20
2093.17489691843
 30
0.0
 11
3426.757716544653
 21
2299.604144692191
 31
0.0
  0
LINE
  5
9B8
330
1F
100
AcDbEntity
  8
STR
100
AcDbLine
 10
4306.757716544653
 20
2093.17489691843
 30
0.0
 11
4306.757716544653
 21
2299.604144692191
 31
0.0
  0
LINE
  5
9B9
330
1F
100
AcDbEntity
  8
STR
100
AcDbLine
 10
3446.757716544652
 20
2298.354144692191
 30
0.0
 11
4286.757716544652
 21
2298.354144692191
 31
0.0
  0
LINE
  5
9BD
330
1F
100
AcDbEntity
  8
STR
100
AcDbLine
 10
2302.363402043894
 20
1042.54989691843
 30
0.0
 11
2461.673367975313
 21
1042.54989691843
 31
0.0
  0
LINE
  5
9BE
330
1F
100
AcDbEntity
  8
STR
100
AcDbLine
 10
2302.363402043894
 20
812.5498969184301
 30
0.0
 11
2461.673367975312
 21
812.5498969184299
 31
0.0
  0
LINE
  5
9BF
330
1F
100
AcDbEntity
  8
STR
100
AcDbLine
 10
2460.423367975312
 20
1022.549896918429
 30
0.0
 11
2460.423367975312
 21
832.5498969184298
 31
0.0
  0
LINE
  5
9C3
330
1F
100
AcDbEntity
  8
STR
100
AcDbLine
 10
1398.738402043894
 20
781.2998969184302
 30
0.0
 11
1398.738402043894
 21
555.5984501068778
 31
0.0
  0
LINE
  5
9C4
330
1F
100
AcDbEntity
  8
STR
100
AcDbLine
 10
2698.738402043895
 20
781.29989691843
 30
0.0
 11
2698.738402043895
 21
555.5984501068778
 31
0.0
  0
LINE
  5
9C5
330
1F
100
AcDbEntity
  8
STR
100
AcDbLine
 10
1418.738402043895
 20
556.8484501068779
 30
0.0
 11
2678.738402043895
 21
556.8484501068779
 31
0.0
  0
LINE
  5
9C9
330
1F
100
AcDbEntity
  8
STR
100
AcDbLine
 10
598.7384020438947
 20
781.9248969184302
 30
0.0
 11
598.7384020438947
 21
555.5984501068778
 31
0.0
  0
LINE
  5
9CA
330
1F
100
AcDbEntity
  8
STR
100
AcDbLine
 10
1398.738402043894
 20
781.9248969184302
 30
0.0
 11
1398.738402043894
 21
555.5984501068778
 31
0.0
  0
LINE
  5
9CB
330
1F
100
AcDbEntity
  8
STR
100
AcDbLine
 10
618.7384020438947
 20
556.8484501068779
 30
0.0
 11
1378.738402043895
 21
556.8484501068779
 31
0.0
  0
LINE
  5
9CF
330
1F
100
AcDbEntity
  8
STR
100
AcDbLine
 10
441.7384020438944
 20
781.2998969184304
 30
0.0
 11
441.7384020438944
 21
555.5984501068778
 31
0.0
  0
LINE
  5
9D0
330
1F
100
AcDbEntity
  8
STR
100
AcDbLine
 10
598.7384020438948
 20
781.2998969184302
 30
0.0
 11
598.7384020438948
 21
555.5984501068778
 31
0.0
  0
LINE
  5
9D1
330
1F
100
AcDbEntity
  8
STR
100
AcDbLine
 10
461.7384020438944
 20
556.8484501068779
 30
0.0
 11
578.7384020438948
 21
556.8484501068779
 31
0.0
  0
LINE
  5
9D5
330
1F
100
AcDbEntity
  8
STR
100
AcDbLine
 10
441.7384020438944
 20
781.9248969184305
 30
0.0
 11
441.7384020438944
 21
453.0454385100129
 31
0.0
  0
LINE
  5
9D6
330
1F
100
AcDbEntity
  8
STR
100
AcDbLine
 10
2698.738402043895
 20
781.92489691843
 30
0.0
 11
2698.738402043895
 21
453.0454385100129
 31
0.0
  0
LINE
  5
9D7
330
1F
100
AcDbEntity
  8
STR
100
AcDbLine
 10
461.7384020438944
 20
454.2954385100129
 30
0.0
 11
2678.738402043895
 21
454.2954385100129
 31
0.0
  0
LINE
  5
9DB
330
1F
100
AcDbEntity
  8
STR
100
AcDbLine
 10
1699.375870718191
 20
1587.54989691843
 30
0.0
 11
1919.112130204758
 21
1587.54989691843
 31
0.0
  0
LINE
  5
9DC
330
1F
100
AcDbEntity
  8
STR
100
AcDbLine
 10
1699.375870718191
 20
812.5498969184302
 30
0.0
 11
1919.112130204757
 21
812.5498969184301
 31
0.0
  0
LINE
  5
9DD
330
1F
100
AcDbEntity
  8
STR
100
AcDbLine
 10
1917.862130204758
 20
1567.54989691843
 30
0.0
 11
1917.862130204757
 21
832.5498969184302
 31
0.0
  0
LINE
  5
9E1
330
1F
100
AcDbEntity
  8
STR
100
AcDbLine
 10
1141.738402043894
 20
2059.465856506246
 30
0.0
 11
1141.738402043894
 21
2254.444053716324
 31
0.0
  0
LINE
  5
9E2
330
1F
100
AcDbEntity
  8
STR
100
AcDbLine
 10
441.7384020438949
 20
2059.465856506246
 30
0.0
 11
441.7384020438949
 21
2254.444053716324
 31
0.0
  0
LINE
  5
9E3
330
1F
100
AcDbEntity
  8
STR
100
AcDbLine
 10
1121.738402043894
 20
2253.194053716324
 30
0.0
 11
461.7384020438948
 21
2253.194053716324
 31
0.0
  0
LINE
  5
9E7
330
1F
100
AcDbEntity
  8
STR
100
AcDbLine
 10
3426.757716544653
 20
1406.200089304092
 30
0.0
 11
3469.641390369452
 21
1449.083763128891
 31
0.0
  0
LINE
  5
9E8
330
1F
100
AcDbEntity
  8
STR
100
AcDbLine
 10
3426.757716544652
 20
1361.298808698746
 30
0.0
 11
3512.186369896211
 21
1446.727462050305
 31
0.0
  0
LINE
  5
9E9
330
1F
100
AcDbEntity
  8
STR
100
AcDbLine
 10
3426.757716544651
 20
1316.3975280934
 30
0.0
 11
3526.114232752736
 21
1415.754044301485
 31
0.0
  0
LINE
  5
9EA
330
1F
100
AcDbEntity
  8
STR
100
AcDbLine
 10
3438.490707531249
 20
1283.229238474651
 30
0.0
 11
3542.229357425553
 21
1386.967888368956
 31
0.0
  0
LINE
  5
9EB
330
1F
100
AcDbEntity
  8
STR
100
AcDbLine
 10
3463.593960969953
 20
1263.43121130801
 30
0.0
 11
3560.37591482867
 21
1360.213165166728
 31
0.0
  0
LINE
  5
9EC
330
1F
100
AcDbEntity
  8
STR
100
AcDbLine
 10
3488.697214408656
 20
1243.633184141367
 30
0.0
 11
3580.456459749551
 21
1335.392429482262
 31
0.0
  0
LINE
  5
9ED
330
1F
100
AcDbEntity
  8
STR
100
AcDbLine
 10
3513.80046784736
 20
1223.835156974725
 30
0.0
 11
3602.420003440069
 21
1312.454692567435
 31
0.0
  0
LINE
  5
9EE
330
1F
100
AcDbEntity
  8
STR
100
AcDbLine
 10
3538.903721286063
 20
1204.037129808083
 30
0.0
 11
3626.256291172003
 21
1291.389699694022
 31
0.0
  0
LINE
  5
9EF
330
1F
100
AcDbEntity
  8
STR
100
AcDbLine
 10
3564.006974724767
 20
1184.239102641441
 30
0.0
 11
3651.994693485745
 21
1272.226821402419
 31
0.0
  0
LINE
  5
9F0
330
1F
100
AcDbEntity
  8
STR
100
AcDbLine
 10
3589.11022816347
 20
1164.441075474799
 30
0.0
 11
3679.707419263935
 21
1255.038266575262
 31
0.0
  0
LINE
  5
9F1
330
1F
100
AcDbEntity
  8
STR
100
AcDbLine
 10
3645.936556151888
 20
1176.366122857871
 30
0.0
 11
3709.51791126126
 21
1239.947477967242
 31
0.0
  0
LINE
  5
9F2
330
1F
100
AcDbEntity
  8
STR
100
AcDbLine
 10
3677.637966915783
 20
1163.16625301642
 30
0.0
 11
3741.616880968669
 21
1227.145167069305
 31
0.0
  0
LINE
  5
9F3
330
1F
100
AcDbEntity
  8
STR
100
AcDbLine
 10
3677.637966915783
 20
1118.264972411074
 30
0.0
 11
3776.291463801463
 21
1216.918469296754
 31
0.0
  0
LINE
  5
9F4
330
1F
100
AcDbEntity
  8
STR
100
AcDbLine
 10
3679.313160359353
 20
1075.038885249298
 30
0.0
 11
3813.979892798419
 21
1209.705617688364
 31
0.0
  0
LINE
  5
9F5
330
1F
100
AcDbEntity
  8
STR
100
AcDbLine
 10
3724.214440964699
 20
1075.038885249298
 30
0.0
 11
3855.382557354943
 21
1206.207001639542
 31
0.0
  0
LINE
  5
9F6
330
1F
100
AcDbEntity
  8
STR
100
AcDbLine
 10
3769.115721570044
 20
1075.038885249298
 30
0.0
 11
3901.719549491236
 21
1207.642713170489
 31
0.0
  0
LINE
  5
9F7
330
1F
100
AcDbEntity
  8
STR
100
AcDbLine
 10
3814.017002175389
 20
1075.038885249297
 30
0.0
 11
3955.473755813903
 21
1216.495638887811
 31
0.0
  0
LINE
  5
9F8
330
1F
100
AcDbEntity
  8
STR
100
AcDbLine
 10
3858.918282780735
 20
1075.038885249297
 30
0.0
 11
4023.686227856594
 21
1239.806830325156
 31
0.0
  0
LINE
  5
9F9
330
1F
100
AcDbEntity
  8
STR
100
AcDbLine
 10
4214.500783137927
 20
1430.621385606489
 30
0.0
 11
4232.963160660335
 21
1449.083763128897
 31
0.0
  0
LINE
  5
9FA
330
1F
100
AcDbEntity
  8
STR
100
AcDbLine
 10
3903.819563386081
 20
1075.038885249297
 30
0.0
 11
4277.86444126568
 21
1449.083763128896
 31
0.0
  0
LINE
  5
9FB
330
1F
100
AcDbEntity
  8
STR
100
AcDbLine
 10
3948.720843991427
 20
1075.038885249297
 30
0.0
 11
4306.757716544653
 21
1433.075757802523
 31
0.0
  0
LINE
  5
9FC
330
1F
100
AcDbEntity
  8
STR
100
AcDbLine
 10
3993.622124596773
 20
1075.038885249297
 30
0.0
 11
4055.877466173522
 21
1137.294226826047
 31
0.0
  0
LINE
  5
9FD
330
1F
100
AcDbEntity
  8
STR
100
AcDbLine
 10
4094.949362205346
 20
1176.366122857871
 30
0.0
 11
4306.757716544653
 21
1388.174477197177
 31
0.0
  0
LINE
  5
9FE
330
1F
100
AcDbEntity
  8
STR
100
AcDbLine
 10
4038.523405202119
 20
1075.038885249297
 30
0.0
 11
4055.877466173522
 21
1092.392946220701
 31
0.0
  0
LINE
  5
9FF
330
1F
100
AcDbEntity
  8
STR
100
AcDbLine
 10
4124.935232250468
 20
1161.450712297646
 30
0.0
 11
4306.757716544653
 21
1343.273196591831
 31
0.0
  0
LINE
  5
A00
330
1F
100
AcDbEntity
  8
STR
100
AcDbLine
 10
4278.89078129251
 20
1270.504980734342
 30
0.0
 11
4306.757716544653
 21
1298.371915986486
 31
0.0
  0
TEXT
  5
A01
330
1F
100
AcDbEntity
  8
STR
100
AcDbText
 10
756.7384020438948
 20
2263.194053716324
 30
0.0
 40
30.0
  1
700
100
AcDbText
  0
LINE
  5
A02
330
1F
100
AcDbEntity
  8
STR
  6
BYBLOCK
 62
     0
100
AcDbLine
 10
461.7384020438948
 20
2247.835069916324
 30
0.0
 11
441.7384020438949
 21
2253.194053716324
 31
0.0
  0
LINE
  5
A03
330
1F
100
AcDbEntity
  8
STR
  6
BYBLOCK
 62
     0
100
AcDbLine
 10
441.7384020438949
 20
2253.194053716324
 30
0.0
 11
461.7384020438948
 21
2258.553037516324
 31
0.0
  0
LINE
  5
A04
330
1F
100
AcDbEntity
  8
STR
  6
BYBLOCK
 62
     0
100
AcDbLine
 10
441.7384020438949
 20
2253.194053716324
 30
0.0
 11
461.7384020438948
 21
2253.194053716324
 31
0.0
  0
LINE
  5
A05
330
1F
100
AcDbEntity
  8
STR
  6
BYBLOCK
 62
     0
100
AcDbLine
 10
1121.738402043894
 20
2258.553037516324
 30
0.0
 11
1141.738402043894
 21
2253.194053716324
 31
0.0
  0
LINE
  5
A06
330
1F
100
AcDbEntity
  8
STR
  6
BYBLOCK
 62
     0
100
AcDbLine
 10
1141.738402043894
 20
2253.194053716324
 30
0.0
 11
1121.738402043894
 21
2247.835069916324
 31
0.0
  0
LINE
  5
A07
330
1F
100
AcDbEntity
  8
STR
  6
BYBLOCK
 62
     0
100
AcDbLine
 10
1141.738402043894
 20
2253.194053716324
 30
0.0
 11
1121.738402043894
 21
2253.194053716324
 31
0.0
  0
TEXT
  5
A08
330
1F
100
AcDbEntity
  8
STR
100
AcDbText
 10
1907.862130204757
 20
1160.04989691843
 30
0.0
 40
30.0
  1
775
 50
90.0
100
AcDbText
  0
LINE
  5
A09
330
1F
100
AcDbEntity
  8
STR
  6
BYBLOCK
 62
     0
100
AcDbLine
 10
1923.221114004757
 20
832.5498969184302
 30
0.0
 11
1917.862130204757
 21
812.5498969184301
 31
0.0
  0
LINE
  5
A0A
330
1F
100
AcDbEntity
  8
STR
  6
BYBLOCK
 62
     0
100
AcDbLine
 10
1917.862130204757
 20
812.5498969184301
 30
0.0
 11
1912.503146404757
 21
832.5498969184302
 31
0.0
  0
LINE
  5
A0B
330
1F
100
AcDbEntity
  8
STR
  6
BYBLOCK
 62
     0
100
AcDbLine
 10
1917.862130204757
 20
812.5498969184301
 30
0.0
 11
1917.862130204757
 21
832.5498969184302
 31
0.0
  0
LINE
  5
A0C
330
1F
100
AcDbEntity
  8
STR
  6
BYBLOCK
 62
     0
100
AcDbLine
 10
1912.503146404758
 20
1567.54989691843
 30
0.0
 11
1917.862130204758
 21
1587.54989691843
 31
0.0
  0
LINE
  5
A0D
330
1F
100
AcDbEntity
  8
STR
  6
BYBLOCK
 62
     0
100
AcDbLine
 10
1917.862130204758
 20
1587.54989691843
 30
0.0
 11
1923.221114004757
 21
1567.54989691843
 31
0.0
  0
LINE
  5
A0E
330
1F
100
AcDbEntity
  8
STR
  6
BYBLOCK
 62
     0
100
AcDbLine
 10
1917.862130204758
 20
1587.54989691843
 30
0.0
 11
1917.862130204758
 21
1567.54989691843
 31
0.0
  0
TEXT
  5
A0F
330
1F
100
AcDbEntity
  8
STR
100
AcDbText
 10
1515.238402043894
 20
464.2954385100129
 30
0.0
 40
30.0
  1
2257
100
AcDbText
  0
LINE
  5
A10
330
1F
100
AcDbEntity
  8
STR
  6
BYBLOCK
 62
     0
100
AcDbLine
 10
2678.738402043895
 20
459.6544223100129
 30
0.0
 11
2698.738402043895
 21
454.2954385100129
 31
0.0
  0
LINE
  5
A11
330
1F
100
AcDbEntity
  8
STR
  6
BYBLOCK
 62
     0
100
AcDbLine
 10
2698.738402043895
 20
454.2954385100129
 30
0.0
 11
2678.738402043895
 21
448.9364547100129
 31
0.0
  0
LINE
  5
A12
330
1F
100
AcDbEntity
  8
STR
  6
BYBLOCK
 62
     0
100
AcDbLine
 10
2698.738402043895
 20
454.2954385100129
 30
0.0
 11
2678.738402043895
 21
454.2954385100129
 31
0.0
  0
LINE
  5
A13
330
1F
100
AcDbEntity
  8
STR
  6
BYBLOCK
 62
     0
100
AcDbLine
 10
461.7384020438944
 20
448.9364547100129
 30
0.0
 11
441.7384020438944
 21
454.2954385100129
 31
0.0
  0
LINE
  5
A14
330
1F
100
AcDbEntity
  8
STR
  6
BYBLOCK
 62
     0
100
AcDbLine
 10
441.7384020438944
 20
454.2954385100129
 30
0.0
 11
461.7384020438944
 21
459.6544223100129
 31
0.0
  0
LINE
  5
A15
330
1F
100
AcDbEntity
  8
STR
  6
BYBLOCK
 62
     0
100
AcDbLine
 10
441.7384020438944
 20
454.2954385100129
 30
0.0
 11
461.7384020438944
 21
454.2954385100129
 31
0.0
  0
TEXT
  5
A16
330
1F
100
AcDbEntity
  8
STR
100
AcDbText
 10
485.2384020438944
 20
566.8484501068778
 30
0.0
 40
30.0
  1
157
100
AcDbText
  0
LINE
  5
A17
330
1F
100
AcDbEntity
  8
STR
  6
BYBLOCK
 62
     0
100
AcDbLine
 10
578.7384020438948
 20
562.2074339068778
 30
0.0
 11
598.7384020438948
 21
556.8484501068779
 31
0.0
  0
LINE
  5
A18
330
1F
100
AcDbEntity
  8
STR
  6
BYBLOCK
 62
     0
100
AcDbLine
 10
598.7384020438948
 20
556.8484501068779
 30
0.0
 11
578.7384020438948
 21
551.4894663068778
 31
0.0
  0
LINE
  5
A19
330
1F
100
AcDbEntity
  8
STR
  6
BYBLOCK
 62
     0
100
AcDbLine
 10
598.7384020438948
 20
556.8484501068779
 30
0.0
 11
578.7384020438948
 21
556.8484501068779
 31
0.0
  0
LINE
  5
A1A
330
1F
100
AcDbEntity
  8
STR
  6
BYBLOCK
 62
     0
100
AcDbLine
 10
461.7384020438944
 20
551.4894663068778
 30
0.0
 11
441.7384020438944
 21
556.8484501068779
 31
0.0
  0
LINE
  5
A1B
330
1F
100
AcDbEntity
  8
STR
  6
BYBLOCK
 62
     0
100
AcDbLine
 10
441.7384020438944
 20
556.8484501068779
 30
0.0
 11
461.7384020438944
 21
562.2074339068778
 31
0.0
  0
LINE
  5
A1C
330
1F
100
AcDbEntity
  8
STR
  6
BYBLOCK
 62
     0
100
AcDbLine
 10
441.7384020438944
 20
556.8484501068779
 30
0.0
 11
461.7384020438944
 21
556.8484501068779
 31
0.0
  0
TEXT
  5
A1D
330
1F
100
AcDbEntity
  8
STR
100
AcDbText
 10
963.7384020438947
 20
566.8484501068778
 30
0.0
 40
30.0
  1
800
100
AcDbText
  0
LINE
  5
A1E
330
1F
100
AcDbEntity
  8
STR
  6
BYBLOCK
 62
     0
100
AcDbLine
 10
1378.738402043895
 20
562.2074339068778
 30
0.0
 11
1398.738402043894
 21
556.8484501068779
 31
0.0
  0
LINE
  5
A1F
330
1F
100
AcDbEntity
  8
STR
  6
BYBLOCK
 62
     0
100
AcDbLine
 10
1398.738402043894
 20
556.8484501068779
 30
0.0
 11
1378.738402043895
 21
551.4894663068778
 31
0.0
  0
LINE
  5
A20
330
1F
100
AcDbEntity
  8
STR
  6
BYBLOCK
 62
     0
100
AcDbLine
 10
1398.738402043894
 20
556.8484501068779
 30
0.0
 11
1378.738402043895
 21
556.8484501068779
 31
0.0
  0
LINE
  5
A21
330
1F
100
AcDbEntity
  8
STR
  6
BYBLOCK
 62
     0
100
AcDbLine
 10
618.7384020438947
 20
551.4894663068778
 30
0.0
 11
598.7384020438947
 21
556.8484501068779
 31
0.0
  0
LINE
  5
A22
330
1F
100
AcDbEntity
  8
STR
  6
BYBLOCK
 62
     0
100
AcDbLine
 10
598.7384020438947
 20
556.8484501068779
 30
0.0
 11
618.7384020438947
 21
562.2074339068778
 31
0.0
  0
LINE
  5
A23
330
1F
100
AcDbEntity
  8
STR
  6
BYBLOCK
 62
     0
100
AcDbLine
 10
598.7384020438947
 20
556.8484501068779
 30
0.0
 11
618.7384020438947
 21
556.8484501068779
 31
0.0
  0
TEXT
  5
A24
330
1F
100
AcDbEntity
  8
STR
100
AcDbText
 10
2003.738402043894
 20
566.8484501068778
 30
0.0
 40
30.0
  1
1300
100
AcDbText
  0
LINE
  5
A25
330
1F
100
AcDbEntity
  8
STR
  6
BYBLOCK
 62
     0
100
AcDbLine
 10
2678.738402043895
 20
562.2074339068778
 30
0.0
 11
2698.738402043895
 21
556.8484501068779
 31
0.0
  0
LINE
  5
A26
330
1F
100
AcDbEntity
  8
STR
  6
BYBLOCK
 62
     0
100
AcDbLine
 10
2698.738402043895
 20
556.8484501068779
 30
0.0
 11
2678.738402043895
 21
551.4894663068778
 31
0.0
  0
LINE
  5
A27
330
1F
100
AcDbEntity
  8
STR
  6
BYBLOCK
 62
     0
100
AcDbLine
 10
2698.738402043895
 20
556.8484501068779
 30
0.0
 11
2678.738402043895
 21
556.8484501068779
 31
0.0
  0
LINE
  5
A28
330
1F
100
AcDbEntity
  8
STR
  6
BYBLOCK
 62
     0
100
AcDbLine
 10
1418.738402043895
 20
551.4894663068778
 30
0.0
 11
1398.738402043894
 21
556.8484501068779
 31
0.0
  0
LINE
  5
A29
330
1F
100
AcDbEntity
  8
STR
  6
BYBLOCK
 62
     0
100
AcDbLine
 10
1398.738402043894
 20
556.8484501068779
 30
0.0
 11
1418.738402043895
 21
562.2074339068778
 31
0.0
  0
LINE
  5
A2A
330
1F
100
AcDbEntity
  8
STR
  6
BYBLOCK
 62
     0
100
AcDbLine
 10
1398.738402043894
 20
556.8484501068779
 30
0.0
 11
1418.738402043895
 21
556.8484501068779
 31
0.0
  0
TEXT
  5
A2B
330
1F
100
AcDbEntity
  8
STR
100
AcDbText
 10
2450.423367975312
 20
890.0498969184303
 30
0.0
 40
30.0
  1
230
 50
90.0
100
AcDbText
  0
LINE
  5
A2C
330
1F
100
AcDbEntity
  8
STR
  6
BYBLOCK
 62
     0
100
AcDbLine
 10
2465.782351775312
 20
832.5498969184298
 30
0.0
 11
2460.423367975312
 21
812.5498969184299
 31
0.0
  0
LINE
  5
A2D
330
1F
100
AcDbEntity
  8
STR
  6
BYBLOCK
 62
     0
100
AcDbLine
 10
2460.423367975312
 20
812.5498969184299
 30
0.0
 11
2455.064384175313
 21
832.5498969184298
 31
0.0
  0
LINE
  5
A2E
330
1F
100
AcDbEntity
  8
STR
  6
BYBLOCK
 62
     0
100
AcDbLine
 10
2460.423367975312
 20
812.5498969184299
 30
0.0
 11
2460.423367975312
 21
832.5498969184298
 31
0.0
  0
LINE
  5
A2F
330
1F
100
AcDbEntity
  8
STR
  6
BYBLOCK
 62
     0
100
AcDbLine
 10
2455.064384175313
 20
1022.54989691843
 30
0.0
 11
2460.423367975312
 21
1042.54989691843
 31
0.0
  0
LINE
  5
A30
330
1F
100
AcDbEntity
  8
STR
  6
BYBLOCK
 62
     0
100
AcDbLine
 10
2460.423367975312
 20
1042.54989691843
 30
0.0
 11
2465.782351775312
 21
1022.54989691843
 31
0.0
  0
LINE
  5
A31
330
1F
100
AcDbEntity
  8
STR
  6
BYBLOCK
 62
     0
100
AcDbLine
 10
2460.423367975312
 20
1042.54989691843
 30
0.0
 11
2460.423367975312
 21
1022.54989691843
 31
0.0
  0
TEXT
  5
A32
330
1F
100
AcDbEntity
  8
STR
100
AcDbText
 10
3829.257716544653
 20
2308.354144692191
 30
0.0
 40
30.0
  1
880
100
AcDbText
  0
LINE
  5
A33
330
1F
100
AcDbEntity
  8
STR
  6
BYBLOCK
 62
     0
100
AcDbLine
 10
4286.757716544652
 20
2303.713128492191
 30
0.0
 11
4306.757716544653
 21
2298.354144692191
 31
0.0
  0
LINE
  5
A34
330
1F
100
AcDbEntity
  8
STR
  6
BYBLOCK
 62
     0
100
AcDbLine
 10
4306.757716544653
 20
2298.354144692191
 30
0.0
 11
4286.757716544652
 21
2292.995160892192
 31
0.0
  0
LINE
  5
A35
330
1F
100
AcDbEntity
  8
STR
  6
BYBLOCK
 62
     0
100
AcDbLine
 10
4306.757716544653
 20
2298.354144692191
 30
0.0
 11
4286.757716544652
 21
2298.354144692191
 31
0.0
  0
LINE
  5
A36
330
1F
100
AcDbEntity
  8
STR
  6
BYBLOCK
 62
     0
100
AcDbLine
 10
3446.757716544652
 20
2292.995160892192
 30
0.0
 11
3426.757716544653
 21
2298.354144692191
 31
0.0
  0
LINE
  5
A37
330
1F
100
AcDbEntity
  8
STR
  6
BYBLOCK
 62
     0
100
AcDbLine
 10
3426.757716544653
 20
2298.354144692191
 30
0.0
 11
3446.757716544652
 21
2303.713128492191
 31
0.0
  0
LINE
  5
A38
330
1F
100
AcDbEntity
  8
STR
  6
BYBLOCK
 62
     0
100
AcDbLine
 10
3426.757716544653
 20
2298.354144692191
 30
0.0
 11
3446.757716544652
 21
2298.354144692191
 31
0.0
  0
TEXT
  5
A39
330
1F
100
AcDbEntity
  8
STR
100
AcDbText
 10
4772.676843724253
 20
1390.04989691843
 30
0.0
 40
30.0
  1
1250
 50
90.0
100
AcDbText
  0
LINE
  5
A3A
330
1F
100
AcDbEntity
  8
STR
  6
BYBLOCK
 62
     0
100
AcDbLine
 10
4788.035827524253
 20
832.54989691843
 30
0.0
 11
4782.676843724253
 21
812.5498969184301
 31
0.0
  0
LINE
  5
A3B
330
1F
100
AcDbEntity
  8
STR
  6
BYBLOCK
 62
     0
100
AcDbLine
 10
4782.676843724253
 20
812.5498969184301
 30
0.0
 11
4777.317859924254
 21
832.54989691843
 31
0.0
  0
LINE
  5
A3C
330
1F
100
AcDbEntity
  8
STR
  6
BYBLOCK
 62
     0
100
AcDbLine
 10
4782.676843724253
 20
812.5498969184301
 30
0.0
 11
4782.676843724253
 21
832.54989691843
 31
0.0
  0
LINE
  5
A3D
330
1F
100
AcDbEntity
  8
STR
  6
BYBLOCK
 62
     0
100
AcDbLine
 10
4777.317859924255
 20
2042.549896918429
 30
0.0
 11
4782.676843724255
 21
2062.549896918429
 31
0.0
  0
LINE
  5
A3E
330
1F
100
AcDbEntity
  8
STR
  6
BYBLOCK
 62
     0
100
AcDbLine
 10
4782.676843724255
 20
2062.549896918429
 30
0.0
 11
4788.035827524254
 21
2042.549896918429
 31
0.0
  0
LINE
  5
A3F
330
1F
100
AcDbEntity
  8
STR
  6
BYBLOCK
 62
     0
100
AcDbLine
 10
4782.676843724255
 20
2062.549896918429
 30
0.0
 11
4782.676843724255
 21
2042.549896918429
 31
0.0
  0
TEXT
  5
A40
330
1F
100
AcDbEntity
  8
STR
100
AcDbText
 10
4590.56571299976
 20
1160.04989691843
 30
0.0
 40
30.0
  1
775
 50
90.0
100
AcDbText
  0
LINE
  5
A41
330
1F
100
AcDbEntity
  8
STR
  6
BYBLOCK
 62
     0
100
AcDbLine
 10
4605.92469679976
 20
832.54989691843
 30
0.0
 11
4600.56571299976
 21
812.5498969184301
 31
0.0
  0
LINE
  5
A42
330
1F
100
AcDbEntity
  8
STR
  6
BYBLOCK
 62
     0
100
AcDbLine
 10
4600.56571299976
 20
812.5498969184301
 30
0.0
 11
4595.20672919976
 21
832.54989691843
 31
0.0
  0
LINE
  5
A43
330
1F
100
AcDbEntity
  8
STR
  6
BYBLOCK
 62
     0
100
AcDbLine
 10
4600.56571299976
 20
812.5498969184301
 30
0.0
 11
4600.56571299976
 21
832.54989691843
 31
0.0
  0
LINE
  5
A44
330
1F
100
AcDbEntity
  8
STR
  6
BYBLOCK
 62
     0
100
AcDbLine
 10
4595.20672919976
 20
1567.54989691843
 30
0.0
 11
4600.56571299976
 21
1587.54989691843
 31
0.0
  0
LINE
  5
A45
330
1F
100
AcDbEntity
  8
STR
  6
BYBLOCK
 62
     0
100
AcDbLine
 10
4600.56571299976
 20
1587.54989691843
 30
0.0
 11
4605.92469679976
 21
1567.54989691843
 31
0.0
  0
LINE
  5
A46
330
1F
100
AcDbEntity
  8
STR
  6
BYBLOCK
 62
     0
100
AcDbLine
 10
4600.56571299976
 20
1587.54989691843
 30
0.0
 11
4600.56571299976
 21
1567.54989691843
 31
0.0
  0
TEXT
  5
A47
330
1F
100
AcDbEntity
  8
STR
100
AcDbText
 10
3824.257716544653
 20
471.6474537845424
 30
0.0
 40
30.0
  1
1000
100
AcDbText
  0
LINE
  5
A48
330
1F
100
AcDbEntity
  8
STR
  6
BYBLOCK
 62
     0
100
AcDbLine
 10
4346.757716544653
 20
467.0064375845424
 30
0.0
 11
4366.757716544653
 21
461.6474537845424
 31
0.0
  0
LINE
  5
A49
330
1F
100
AcDbEntity
  8
STR
  6
BYBLOCK
 62
     0
100
AcDbLine
 10
4366.757716544653
 20
461.6474537845424
 30
0.0
 11
4346.757716544653
 21
456.2884699845424
 31
0.0
  0
LINE
  5
A4A
330
1F
100
AcDbEntity
  8
STR
  6
BYBLOCK
 62
     0
100
AcDbLine
 10
4366.757716544653
 20
461.6474537845424
 30
0.0
 11
4346.757716544653
 21
461.6474537845424
 31
0.0
  0
LINE
  5
A4B
330
1F
100
AcDbEntity
  8
STR
  6
BYBLOCK
 62
     0
100
AcDbLine
 10
3386.757716544654
 20
456.2884699845424
 30
0.0
 11
3366.757716544654
 21
461.6474537845424
 31
0.0
  0
LINE
  5
A4C
330
1F
100
AcDbEntity
  8
STR
  6
BYBLOCK
 62
     0
100
AcDbLine
 10
3366.757716544654
 20
461.6474537845424
 30
0.0
 11
3386.757716544654
 21
467.0064375845424
 31
0.0
  0
LINE
  5
A4D
330
1F
100
AcDbEntity
  8
STR
  6
BYBLOCK
 62
     0
100
AcDbLine
 10
3366.757716544654
 20
461.6474537845424
 30
0.0
 11
3386.757716544654
 21
461.6474537845424
 31
0.0
  0
TEXT
  5
A4E
330
1F
100
AcDbEntity
  8
STR
100
AcDbText
 10
3831.757716544652
 20
610.7204817981946
 30
0.0
 40
30.0
  1
900
100
AcDbText
  0
LINE
  5
A4F
330
1F
100
AcDbEntity
  8
STR
  6
BYBLOCK
 62
     0
100
AcDbLine
 10
4296.757716544653
 20
606.0794655981947
 30
0.0
 11
4316.757716544652
 21
600.7204817981946
 31
0.0
  0
LINE
  5
A50
330
1F
100
AcDbEntity
  8
STR
  6
BYBLOCK
 62
     0
100
AcDbLine
 10
4316.757716544652
 20
600.7204817981946
 30
0.0
 11
4296.757716544653
 21
595.3614979981946
 31
0.0
  0
LINE
  5
A51
330
1F
100
AcDbEntity
  8
STR
  6
BYBLOCK
 62
     0
100
AcDbLine
 10
4316.757716544652
 20
600.7204817981946
 30
0.0
 11
4296.757716544653
 21
600.7204817981946
 31
0.0
  0
LINE
  5
A52
330
1F
100
AcDbEntity
  8
STR
  6
BYBLOCK
 62
     0
100
AcDbLine
 10
3436.757716544653
 20
595.3614979981946
 30
0.0
 11
3416.757716544653
 21
600.7204817981946
 31
0.0
  0
LINE
  5
A53
330
1F
100
AcDbEntity
  8
STR
  6
BYBLOCK
 62
     0
100
AcDbLine
 10
3416.757716544653
 20
600.7204817981946
 30
0.0
 11
3436.757716544653
 21
606.0794655981947
 31
0.0
  0
LINE
  5
A54
330
1F
100
AcDbEntity
  8
STR
  6
BYBLOCK
 62
     0
100
AcDbLine
 10
3416.757716544653
 20
600.7204817981946
 30
0.0
 11
3436.757716544653
 21
600.7204817981946
 31
0.0
  0
VIEWPORT
  5
93F
102
{ACAD_XDICTIONARY
360
A69
102
}
330
55
100
AcDbEntity
 67
     1
  8
0
100
AcDbViewport
 10
142.6104125976562
 20
99.11291408538819
 30
0.0
 40
314.1924854736328
 41
243.5479638950893
 68
     1
 69
     1
1001
ACAD
1000
MVIEW
1002
{
1070
    16
1010
0.0
1020
0.0
1030
0.0
1010
0.0
1020
0.0
1030
1.0
1040
0.0
1040
243.5479638950893
1040
142.6104125976562
1040
99.11291408538819
1040
50.0
1040
0.0
1040
0.0
1070
     0
1070
  1000
1070
     1
1070
     1
1070
     0
1070
     0
1070
     0
1070
     0
1040
0.0
1040
0.0
1040
0.0
1040
10.0
1040
10.0
1040
10.0
1040
10.0
1070
     0
1002
{
1002
}
1002
}
  0
VIEWPORT
  5
941
102
{ACAD_XDICTIONARY
360
A6B
102
}
330
55
100
AcDbEntity
 67
     1
  8
0
100
AcDbViewport
 10
142.3979682005487
 20
99.75435353059424
 30
0.0
 40
292.3276630623632
 41
206.8045020403922
 68
     2
 69
     2
1001
ACAD
1000
MVIEW
1002
{
1070
    16
1010
0.0
1020
0.0
1030
0.0
1010
0.0
1020
0.0
1030
1.0
1040
0.0
1040
4136.090040807844
1040
2523.941768738268
1040
1764.294333822742
1040
50.0
1040
0.0
1040
0.0
1070
     0
1070
  1000
1070
     1
1070
     3
1070
     0
1070
     0
1070
     0
1070
     0
1040
0.0
1040
0.0
1040
0.0
1040
10.0
1040
10.0
1040
10.0
1040
10.0
1070
     0
1002
{
1002
}
1002
}
  0
ENDSEC
  0
SECTION
  2
OBJECTS
  0
DICTIONARY
  5
C
330
0
100
AcDbDictionary
  3
ACAD_COLOR
350
6B
  3
ACAD_GROUP
350
D
  3
ACAD_IMAGE_DICT
350
87
  3
ACAD_IMAGE_VARS
350
88
  3
ACAD_LAYOUT
350
1A
  3
ACAD_MATERIAL
350
6A
  3
ACAD_MLINESTYLE
350
17
  3
ACAD_PLOTSETTINGS
350
19
  3
ACAD_PLOTSTYLENAME
350
E
  3
ACDBHEADERROUNDTRIPXREC
350
AB2
  3
ACDBVARIABLEDICTIONARY
350
5E
  0
DICTIONARY
  5
161
330
1F
100
AcDbDictionary
280
     1
  3
ACAD_LAYOUTSELFREF
360
AD3
  3
ACAD_SORTENTS
360
162
  0
DICTIONARY
  5
AD4
330
55
100
AcDbDictionary
280
     1
  3
ACAD_LAYOUTSELFREF
360
AD5
  0
DICTIONARY
  5
A69
330
93F
100
AcDbDictionary
280
     1
  3
ACAD_XREC_ROUNDTRIP
360
A6A
  0
DICTIONARY
  5
A6B
330
941
100
AcDbDictionary
280
     1
  3
ACAD_XREC_ROUNDTRIP
360
A6C
  0
DICTIONARY
  5
6B
102
{ACAD_REACTORS
330
C
102
}
330
C
100
AcDbDictionary
  0
DICTIONARY
  5
D
102
{ACAD_REACTORS
330
C
102
}
330
C
100
AcDbDictionary
  0
DICTIONARY
  5
87
102
{ACAD_REACTORS
330
C
102
}
330
C
100
AcDbDictionary
  3
よこしすてむさん２_ペ_ジ_2_画像_0001
350
89
  0
RASTERVARIABLES
  5
88
102
{ACAD_REACTORS
330
C
102
}
330
C
100
AcDbRasterVariables
 90
        0
 70
     1
 71
     1
 72
     1
  0
DICTIONARY
  5
1A
102
{ACAD_REACTORS
330
C
102
}
330
C
100
AcDbDictionary
  0
DICTIONARY
  5
6A
102
{ACAD_REACTORS
330
C
102
}
330
C
100
AcDbDictionary
  0
DICTIONARY
  5
17
102
{ACAD_REACTORS
330
C
102
}
330
C
100
AcDbDictionary
  3
STANDARD
350
18
  0
DICTIONARY
  5
19
102
{ACAD_REACTORS
330
C
102
}
330
C
100
AcDbDictionary
  0
ACDBDICTIONARYWDFLT
  5
E
102
{ACAD_REACTORS
330
C
102
}
330
C
100
AcDbDictionary
281
     1
  3
Normal
350
F
100
AcDbDictionaryWithDefault
340
F
  0
DICTIONARY
  5
AB2
102
{ACAD_REACTORS
330
C
102
}
330
C
100
AcDbDictionary
  3
CEPSNTYPE
350
ABC
  3
DIMSTYLEDATA
350
AC0
  3
FINGERPRINTGUID
350
ABD
  3
HYPERLINKBASE
350
AB5
  3
INSUNITS
350
ABB
  3
LAYOUTDICT
350
AB7
  3
LWETCUNION
350
ABA
  3
PLOTSETDICT
350
AB8
  3
PLOTSTYLNAMDICT
350
AB9
  3
PSVPSCALE
350
ABF
  3
PUCSBASE
350
AC3
  3
PUCSORGBACK
350
AC9
  3
PUCSORGBOTTOM
350
AC5
  3
PUCSORGFRONT
350
AC8
  3
PUCSORGLEFT
350
AC6
  3
PUCSORGRIGHT
350
AC7
  3
PUCSORGTOP
350
AC4
  3
PUCSORTHOREF
350
AC1
  3
PUCSORTHOVIEW
350
AC2
  3
STYLESHEET
350
AB6
  3
TSTACKALIGN
350
AB3
  3
TSTACKSIZE
350
AB4
  3
UCSBASE
350
ACC
  3
UCSORGBACK
350
AD2
  3
UCSORGBOTTOM
350
ACE
  3
UCSORGFRONT
350
AD1
  3
UCSORGLEFT
350
ACF
  3
UCSORGRIGHT
350
AD0
  3
UCSORGTOP
350
ACD
  3
UCSORTHOREF
350
ACA
  3
UCSORTHOVIEW
350
ACB
  3
VERSIONGUID
350
ABE
  0
DICTIONARY
  5
5E
102
{ACAD_REACTORS
330
C
102
}
330
C
100
AcDbDictionary
  3
DIMASSOC
350
5F
  3
HIDETEXT
350
63
  3
PROJECTNAME
350
547
  0
XRECORD
  5
AD3
102
{ACAD_REACTORS
330
161
102
}
330
161
100
AcDbXrecord
340
1F
  0
SORTENTSTABLE
  5
162
102
{ACAD_REACTORS
330
161
102
}
330
161
100
AcDbSortentsTable
330
1F
331
C9
  5
C9
331
1C2
  5
1C2
331
1CB
  5
1CB
331
1BC
  5
1BC
331
142
  5
142
331
1A7
  5
1A7
331
12D
  5
12D
331
1AA
  5
1AA
331
111
  5
111
331
FA
  5
FA
331
BD
  5
BD
331
187
  5
187
331
10B
  5
10B
331
B7
  5
B7
331
D6
  5
D6
331
17A
  5
17A
331
181
  5
181
331
B1
  5
B1
331
D0
  5
D0
331
1C3
  5
1C3
331
1CC
  5
1CC
331
1BD
  5
1BD
331
1B7
  5
1B7
331
13D
  5
13D
331
12E
  5
12E
331
1AB
  5
1AB
331
128
  5
128
331
C4
  5
C4
331
FB
  5
FB
331
BE
  5
BE
331
188
  5
188
331
10C
  5
10C
331
182
  5
182
331
17B
  5
17B
331
D7
  5
D7
331
B2
  5
B2
331
D1
  5
D1
331
15F
  5
15F
331
1C4
  5
1C4
331
1CD
  5
1CD
331
1B8
  5
1B8
331
13E
  5
13E
331
12F
  5
12F
331
FC
  5
FC
331
189
  5
189
331
10D
  5
10D
331
183
  5
183
331
17C
  5
17C
331
D8
  5
D8
331
160
  5
160
331
1C5
  5
1C5
331
CC
  5
CC
331
1BF
  5
1BF
331
1CE
  5
1CE
331
1C8
  5
1C8
331
13F
  5
13F
331
130
  5
130
331
1A4
  5
1A4
331
12A
  5
12A
331
198
  5
198
331
FD
  5
FD
331
C6
  5
C6
331
18A
  5
18A
331
10E
  5
10E
331
C0
  5
C0
331
184
  5
184
331
17D
  5
17D
331
D9
  5
D9
331
1C6
  5
1C6
331
152
  5
152
331
CD
  5
CD
331
1CF
  5
1CF
331
1C0
  5
1C0
331
14C
  5
14C
331
1C9
  5
1C9
331
1BA
  5
1BA
331
140
  5
140
331
1A5
  5
1A5
331
12B
  5
12B
331
1A8
  5
1A8
331
C7
  5
C7
331
18B
  5
18B
331
10F
  5
10F
331
C1
  5
C1
331
185
  5
185
331
109
  5
109
331
17E
  5
17E
331
BB
  5
BB
331
A4
  5
A4
331
1C7
  5
1C7
331
CE
  5
CE
331
C8
  5
C8
331
1C1
  5
1C1
331
1D0
  5
1D0
331
1CA
  5
1CA
331
1BB
  5
1BB
331
1A6
  5
1A6
331
12C
  5
12C
331
1A9
  5
1A9
331
110
  5
110
331
18C
  5
18C
331
C2
  5
C2
331
186
  5
186
331
17F
  5
17F
331
10A
  5
10A
331
B6
  5
B6
331
D5
  5
D5
331
179
  5
179
331
180
  5
180
331
CF
  5
CF
  0
XRECORD
  5
AD5
102
{ACAD_REACTORS
330
AD4
102
}
330
AD4
100
AcDbXrecord
340
55
  0
XRECORD
  5
A6A
102
{ACAD_REACTORS
330
A69
102
}
330
A69
100
AcDbXrecord
102
SHADEPLOT
 70
     0
  0
XRECORD
  5
A6C
102
{ACAD_REACTORS
330
A6B
102
}
330
A6B
100
AcDbXrecord
102
SHADEPLOT
 70
     0
  0
IMAGEDEF
  5
89
102
{ACAD_REACTORS
330
87
102
}
330
87
100
AcDbRasterImageDef
 90
        0
  1
D:\東京油機\05-04-08\よこしすてむさん２_ページ_2_画像_0001.tif
 10
2471.0
 20
3427.0
 11
0.0849498327759197
 21
0.0849498327759197
280
     1
281
     5
  0
MLINESTYLE
  5
18
102
{ACAD_REACTORS
330
17
102
}
330
17
100
AcDbMlineStyle
  2
STANDARD
 70
     0
  3

 62
   256
 51
90.0
 52
90.0
 71
     2
 49
0.5
 62
   256
  6
BYLAYER
 49
-0.5
 62
   256
  6
BYLAYER
  0
ACDBPLACEHOLDER
  5
F
102
{ACAD_REACTORS
330
E
102
}
330
E
100
AcDbPlaceHolder
280
     0
  0
XRECORD
  5
ABC
102
{ACAD_REACTORS
330
AB2
102
}
330
AB2
100
AcDbXrecord
 90
        0
  0
XRECORD
  5
AC0
102
{ACAD_REACTORS
330
AB2
102
}
330
AB2
100
AcDbXrecord
1000
DSTYLE
1002
{
1070
   278
 70
    44
1070
   289
 70
     2
1070
   341
340
2D8
1070
   342
340
2D2
1002
}
  0
XRECORD
  5
ABD
102
{ACAD_REACTORS
330
AB2
102
}
330
AB2
100
AcDbXrecord
  1
{FDEAD578-A652-11D2-9A35-0060089B3A3F}
  0
XRECORD
  5
AB5
102
{ACAD_REACTORS
330
AB2
102
}
330
AB2
100
AcDbXrecord
  1

  0
XRECORD
  5
ABB
102
{ACAD_REACTORS
330
AB2
102
}
330
AB2
100
AcDbXrecord
 90
        4
  0
XRECORD
  5
AB7
102
{ACAD_REACTORS
330
AB2
102
}
330
AB2
100
AcDbXrecord
340
1A
  0
XRECORD
  5
ABA
102
{ACAD_REACTORS
330
AB2
102
}
330
AB2
100
AcDbXrecord
 90
    10781
  0
XRECORD
  5
AB8
102
{ACAD_REACTORS
330
AB2
102
}
330
AB2
100
AcDbXrecord
340
19
  0
XRECORD
  5
AB9
102
{ACAD_REACTORS
330
AB2
102
}
330
AB2
100
AcDbXrecord
340
E
  0
XRECORD
  5
ABF
102
{ACAD_REACTORS
330
AB2
102
}
330
AB2
100
AcDbXrecord
 40
0.0
  0
XRECORD
  5
AC3
102
{ACAD_REACTORS
330
AB2
102
}
330
AB2
100
AcDbXrecord
340
0
  0
XRECORD
  5
AC9
102
{ACAD_REACTORS
330
AB2
102
}
330
AB2
100
AcDbXrecord
 10
0.0
 20
0.0
 30
0.0
  0
XRECORD
  5
AC5
102
{ACAD_REACTORS
330
AB2
102
}
330
AB2
100
AcDbXrecord
 10
0.0
 20
0.0
 30
0.0
  0
XRECORD
  5
AC8
102
{ACAD_REACTORS
330
AB2
102
}
330
AB2
100
AcDbXrecord
 10
0.0
 20
0.0
 30
0.0
  0
XRECORD
  5
AC6
102
{ACAD_REACTORS
330
AB2
102
}
330
AB2
100
AcDbXrecord
 10
0.0
 20
0.0
 30
0.0
  0
XRECORD
  5
AC7
102
{ACAD_REACTORS
330
AB2
102
}
330
AB2
100
AcDbXrecord
 10
0.0
 20
0.0
 30
0.0
  0
XRECORD
  5
AC4
102
{ACAD_REACTORS
330
AB2
102
}
330
AB2
100
AcDbXrecord
 10
0.0
 20
0.0
 30
0.0
  0
XRECORD
  5
AC1
102
{ACAD_REACTORS
330
AB2
102
}
330
AB2
100
AcDbXrecord
340
0
  0
XRECORD
  5
AC2
102
{ACAD_REACTORS
330
AB2
102
}
330
AB2
100
AcDbXrecord
 70
     0
  0
XRECORD
  5
AB6
102
{ACAD_REACTORS
330
AB2
102
}
330
AB2
100
AcDbXrecord
  1

  0
XRECORD
  5
AB3
102
{ACAD_REACTORS
330
AB2
102
}
330
AB2
100
AcDbXrecord
 90
        1
  0
XRECORD
  5
AB4
102
{ACAD_REACTORS
330
AB2
102
}
330
AB2
100
AcDbXrecord
 90
       70
  0
XRECORD
  5
ACC
102
{ACAD_REACTORS
330
AB2
102
}
330
AB2
100
AcDbXrecord
340
0
  0
XRECORD
  5
AD2
102
{ACAD_REACTORS
330
AB2
102
}
330
AB2
100
AcDbXrecord
 10
0.0
 20
0.0
 30
0.0
  0
XRECORD
  5
ACE
102
{ACAD_REACTORS
330
AB2
102
}
330
AB2
100
AcDbXrecord
 10
0.0
 20
0.0
 30
0.0
  0
XRECORD
  5
AD1
102
{ACAD_REACTORS
330
AB2
102
}
330
AB2
100
AcDbXrecord
 10
0.0
 20
0.0
 30
0.0
  0
XRECORD
  5
ACF
102
{ACAD_REACTORS
330
AB2
102
}
330
AB2
100
AcDbXrecord
 10
0.0
 20
0.0
 30
0.0
  0
XRECORD
  5
AD0
102
{ACAD_REACTORS
330
AB2
102
}
330
AB2
100
AcDbXrecord
 10
0.0
 20
0.0
 30
0.0
  0
XRECORD
  5
ACD
102
{ACAD_REACTORS
330
AB2
102
}
330
AB2
100
AcDbXrecord
 10
0.0
 20
0.0
 30
0.0
  0
XRECORD
  5
ACA
102
{ACAD_REACTORS
330
AB2
102
}
330
AB2
100
AcDbXrecord
340
0
  0
XRECORD
  5
ACB
102
{ACAD_REACTORS
330
AB2
102
}
330
AB2
100
AcDbXrecord
 70
     0
  0
XRECORD
  5
ABE
102
{ACAD_REACTORS
330
AB2
102
}
330
AB2
100
AcDbXrecord
  1
{34057135-F088-416D-89EE-FDAC8A22A8B1}
  0
DICTIONARYVAR
  5
5F
102
{ACAD_REACTORS
330
5E
102
}
330
5E
100
DictionaryVariables
280
     0
  1
2
  0
DICTIONARYVAR
  5
63
102
{ACAD_REACTORS
330
5E
102
}
330
5E
100
DictionaryVariables
280
     0
  1
1
  0
DICTIONARYVAR
  5
547
102
{ACAD_REACTORS
330
5E
102
}
330
5E
100
DictionaryVariables
280
     0
  1

  0
ENDSEC
  0
EOF
