  0
SECTION
  2
HEADER
  9
$ACADVER
  1
AC1009
  9
$INSBASE
 10
0
 20
0
 30
0
  9
$EXTMIN
 10
0
 20
0
  9
$EXTMAX
 10
8910
 20
6300
  9
$LIMMIN
 10
0
 20
0
  9
$LIMMAX
 10
8910
 20
6300
  9
$LTSCALE
 40
30
  0
ENDSEC
  0
SECTION
  2
TABLES
  0
TABLE
  2
LTYPE
 70
     9
  0
LTYPE
  2
CONTINUOUS
 70
    64
  3
実線
 72
    65
 73
     0
 40
0.0
  0
LTYPE
  2
DASHED1
 70
    64
  3
--  --  --  --  --  --  --  --  
 72
    65
 73
     2
 40
2.5
 49
1.25
 49
-1.25
  0
LTYPE
  2
DASHED2
 70
    64
  3
----    ----    ----    ----    
 72
    65
 73
     2
 40
5.0
 49
2.5
 49
-2.5
  0
LTYPE
  2
DASHED3
 70
    64
  3
------  ------  ------  ------  
 72
    65
 73
     2
 40
5.0
 49
3.75
 49
-1.25
  0
LTYPE
  2
CENTER1
 70
    64
  3
----- - ----- - ----- - ----- - 
 72
    65
 73
     4
 40
10.0
 49
6.25
 49
-1.25
 49
1.25
 49
-1.25
  0
LTYPE
  2
CENTER2
 70
    64
  3
----------  --  ----------  --  
 72
    65
 73
     4
 40
20.0
 49
12.5
 49
-2.5
 49
2.5
 49
-2.5
  0
LTYPE
  2
PHANTOM1
 70
    64
  3
--- - - --- - - --- - - --- - - 
 72
    65
 73
     6
 40
10.0
 49
3.25
 49
-1.25
 49
1.25
 49
-1.25
 49
1.25
 49
-1.25
  0
LTYPE
  2
PHANTOM2
 70
    64
  3
--------  -  -  --------  -  -  
 72
    65
 73
     6
 40
20.0
 49
10.0
 49
-2.5
 49
1.25
 49
-2.5
 49
1.25
 49
-2.5
  0
LTYPE
  2
DOT
 70
    64
  3
-   -   -   -   -   -   -   -   
 72
    65
 73
     2
 40
2.5
 49
0.625
 49
-1.875
  0
LTYPE
  2
DUMMY
 70
    64
  3
ダミー
 72
    65
 73
     0
 40
0.0
  0
LTYPE
  2
RAND1
 70
    64
  3
----- - ----- - ----- - ----- - 
 72
    65
 73
     4
 40
10.0
 49
6.25
 49
-1.25
 49
1.25
 49
-1.25
  0
LTYPE
  2
RAND2
 70
    64
  3
----------  --  ----------  --  
 72
    65
 73
     4
 40
20.0
 49
12.5
 49
-2.5
 49
2.5
 49
-2.5
  0
LTYPE
  2
RAND3
 70
    64
  3
--- - - --- - - --- - - --- - - 
 72
    65
 73
     6
 40
10.0
 49
3.25
 49
-1.25
 49
1.25
 49
-1.25
 49
1.25
 49
-1.25
  0
LTYPE
  2
RAND4
 70
    64
  3
--------  -  -  --------  -  -  
 72
    65
 73
     6
 40
20.0
 49
10.0
 49
-2.5
 49
1.25
 49
-2.5
 49
1.25
 49
-2.5
  0
LTYPE
  2
RAND5
 70
    64
  3
----- - ----- - ----- - ----- - 
 72
    65
 73
     4
 40
10.0
 49
6.25
 49
-1.25
 49
1.25
 49
-1.25
  0
LTYPE
  2
LONG1
 70
    64
  3
----------  --  ----------  --  
 72
    65
 73
     4
 40
20.0
 49
12.5
 49
-2.5
 49
2.5
 49
-2.5
  0
LTYPE
  2
LONG2
 70
    64
  3
--- - - --- - - --- - - --- - - 
 72
    65
 73
     6
 40
10.0
 49
3.25
 49
-1.25
 49
1.25
 49
-1.25
 49
1.25
 49
-1.25
  0
LTYPE
  2
LONG3
 70
    64
  3
--------  -  -  --------  -  -  
 72
    65
 73
     6
 40
20.0
 49
10.0
 49
-2.5
 49
1.25
 49
-2.5
 49
1.25
 49
-2.5
  0
LTYPE
  2
LONG4
 70
    64
  3
----- - ----- - ----- - ----- - 
 72
    65
 73
     4
 40
10.0
 49
6.25
 49
-1.25
 49
1.25
 49
-1.25
  0
LTYPE
  2
LONG5
 70
    64
  3
----------  --  ----------  --  
 72
    65
 73
     4
 40
20.0
 49
12.5
 49
-2.5
 49
2.5
 49
-2.5
  0
ENDTAB
  0
TABLE
  2
STYLE
  5
3
100
AcDbSymbolTable
 70
     1
  0
STYLE
  5
10
100
AcDbSymbolTableRecord
100
AcDbTextStyleTableRecord
  2
STANDARD
 70
     0
 40
0.0
 41
1.0
 50
0.0
 71
     0
 42
0.2
  3
txt
  4
bigfont.shx
  0
STYLE
  5
26
100
AcDbSymbolTableRecord
100
AcDbTextStyleTableRecord
  2
TATEGAKI
 70
    68
 40
0.0
 41
1.0
 50
0.0
 71
     0
 42
1.0
  3
txt
  4
bigfont.shx
  0
ENDTAB
  0
TABLE
  2
LAYER
 70
    3
  0
LAYER
  2
_0-1_BMK
 70
   64
 62
    7
  6
CONTINUOUS
  0
LAYER
  2
_0-3_STR
 70
   64
 62
    7
  6
CONTINUOUS
  0
LAYER
  2
ADD_LINE
 70
   64
 62
    7
  6
CONTINUOUS
  0
ENDTAB
  0
ENDSEC
  0
SECTION
  2
BLOCKS
  0
ENDSEC
  0
SECTION
  2
ENTITIES
  0
LINE
  8
_0-1_BMK
  6
CENTER2
 62
    1
 10
4806.9254
 20
2985.0131
 11
2195.388
 21
2985.0131
  0
LINE
  8
_0-3_STR
  6
CONTINUOUS
 62
    7
 10
2760.4615
 20
3460.0131
 11
2760.4615
 21
2498.1327
  0
LINE
  8
_0-3_STR
  6
CONTINUOUS
 62
    7
 10
2760.4615
 20
3366.5256
 11
2577.8306
 21
3366.5256
  0
LINE
  8
_0-3_STR
  6
CONTINUOUS
 62
    7
 10
2577.8306
 20
3171.3995
 11
2760.4615
 21
3171.3995
  0
LINE
  8
_0-3_STR
  6
CONTINUOUS
 62
    7
 10
2577.8306
 20
3056.2559
 11
2760.4615
 21
3056.2559
  0
LINE
  8
_0-3_STR
  6
CONTINUOUS
 62
    7
 10
2577.8306
 20
2603.5006
 11
2577.8306
 21
3366.5256
  0
LINE
  8
_0-3_STR
  6
CONTINUOUS
 62
    7
 10
2577.8306
 20
2985.0131
 11
2760.4615
 21
2985.0131
  0
LINE
  8
_0-3_STR
  6
CONTINUOUS
 62
    7
 10
2577.8306
 20
2913.7702
 11
2760.4615
 21
2913.7702
  0
LINE
  8
_0-3_STR
  6
CONTINUOUS
 62
    7
 10
2577.8306
 20
2798.6266
 11
2721.3555
 21
2798.6266
  0
LINE
  8
_0-3_STR
  6
CONTINUOUS
 62
    7
 10
2805.1938
 20
3460.0131
 11
2805.1938
 21
2510.0131
  0
LINE
  8
_0-3_STR
  6
CONTINUOUS
 62
    7
 10
2760.4615
 20
3460.0131
 11
2805.1938
 21
3460.0131
  0
LINE
  8
_0-3_STR
  6
CONTINUOUS
 62
    7
 10
2879.5161
 20
3438.2088
 11
2805.1938
 21
3438.2088
  0
LINE
  8
_0-3_STR
  6
CONTINUOUS
 62
    7
 10
2879.5161
 20
3438.2088
 11
2953.8384
 21
3438.2088
  0
LINE
  8
_0-3_STR
  6
CONTINUOUS
 62
    7
 10
2998.5707
 20
3460.0131
 11
2953.8384
 21
3460.0131
  0
LINE
  8
_0-3_STR
  6
CONTINUOUS
 62
    7
 10
2953.8384
 20
3460.0131
 11
2953.8384
 21
2510.0131
  0
LINE
  8
_0-3_STR
  6
CONTINUOUS
 62
    7
 10
2998.5707
 20
3460.0131
 11
2998.5707
 21
2498.1327
  0
LINE
  8
_0-3_STR
  6
CONTINUOUS
 62
    7
 10
2879.5161
 20
3438.2088
 11
2879.5161
 21
2531.8173
  0
LINE
  8
_0-3_STR
  6
CONTINUOUS
 62
    7
 10
3068.0309
 20
3426.304
 11
2998.5707
 21
3426.304
  0
LINE
  8
_0-3_STR
  6
CONTINUOUS
 62
    7
 10
3068.0309
 20
3426.304
 11
3068.0309
 21
2699.6113
  0
LINE
  8
_0-3_STR
  6
CONTINUOUS
 62
    7
 10
3068.0309
 20
2699.6113
 11
3037.6768
 21
2699.6113
  0
LINE
  8
_0-3_STR
  6
CONTINUOUS
 62
    7
 10
2760.4615
 20
2846.5469
 11
2721.3555
 21
2846.5469
  0
LINE
  8
_0-3_STR
  6
CONTINUOUS
 62
    7
 10
2721.3555
 20
2846.5469
 11
2721.3555
 21
2465.8448
  0
LINE
  8
_0-3_STR
  6
CONTINUOUS
 62
    7
 10
2879.5161
 20
2465.8448
 11
2721.3555
 21
2465.8448
  0
LINE
  8
_0-3_STR
  6
CONTINUOUS
 62
    7
 10
3037.6768
 20
2846.5469
 11
3037.6768
 21
2465.8448
  0
LINE
  8
_0-3_STR
  6
CONTINUOUS
 62
    7
 10
2998.5707
 20
2846.5469
 11
3037.6768
 21
2846.5469
  0
LINE
  8
_0-3_STR
  6
CONTINUOUS
 62
    7
 10
2879.5161
 20
2465.8448
 11
3037.6768
 21
2465.8448
  0
LINE
  8
_0-3_STR
  6
CONTINUOUS
 62
    7
 10
2760.4615
 20
2498.1327
 11
2998.5707
 21
2498.1327
  0
LINE
  8
_0-3_STR
  6
CONTINUOUS
 62
    7
 10
2525.0309
 20
2465.8448
 11
2525.0309
 21
2210.0131
  0
LINE
  8
_0-3_STR
  6
CONTINUOUS
 62
    7
 10
2525.0309
 20
2210.0131
 11
3325.0309
 21
2210.0131
  0
LINE
  8
_0-3_STR
  6
CONTINUOUS
 62
    7
 10
3325.0309
 20
2210.0131
 11
3325.0309
 21
2465.8448
  0
LINE
  8
_0-3_STR
  6
CONTINUOUS
 62
    7
 10
3325.0309
 20
2465.8448
 11
2525.0309
 21
2465.8448
  0
LINE
  8
_0-3_STR
  6
CONTINUOUS
 62
    7
 10
2470.342
 20
2457.0482
 11
2470.342
 21
2218.8097
  0
LINE
  8
_0-3_STR
  6
CONTINUOUS
 62
    7
 10
2470.342
 20
2218.8097
 11
2525.0309
 21
2218.8097
  0
LINE
  8
_0-3_STR
  6
CONTINUOUS
 62
    7
 10
2470.342
 20
2457.0482
 11
2525.0309
 21
2457.0482
  0
LINE
  8
_0-3_STR
  6
CONTINUOUS
 62
    7
 10
2368.0309
 20
2398.288
 11
2470.342
 21
2398.288
  0
LINE
  8
_0-3_STR
  6
CONTINUOUS
 62
    7
 10
2368.0309
 20
2398.288
 11
2368.0309
 21
2350.9321
  0
LINE
  8
_0-3_STR
  6
CONTINUOUS
 62
    7
 10
2368.0309
 20
2350.9321
 11
2470.342
 21
2350.9321
  0
LINE
  8
_0-3_STR
  6
CONTINUOUS
 62
    7
 10
2368.0309
 20
2238.9998
 11
2470.342
 21
2238.9998
  0
LINE
  8
_0-3_STR
  6
CONTINUOUS
 62
    7
 10
2368.0309
 20
2286.3558
 11
2368.0309
 21
2238.9998
  0
LINE
  8
_0-3_STR
  6
CONTINUOUS
 62
    7
 10
2368.0309
 20
2286.3558
 11
2470.342
 21
2286.3558
  0
LINE
  8
_0-1_BMK
  6
CENTER2
 62
    1
 10
2419.1865
 20
2146.7527
 11
2419.1865
 21
2492.632
  0
LINE
  8
_0-1_BMK
  6
CENTER2
 62
    1
 10
2584.7378
 20
2595.4629
 11
2584.7378
 21
2328.1022
  0
LINE
  8
_0-3_STR
  6
CONTINUOUS
 62
    7
 10
2545.9644
 20
2565.6359
 11
2623.5112
 21
2565.6359
  0
LINE
  8
_0-3_STR
  6
CONTINUOUS
 62
    7
 10
2545.9644
 20
2565.6359
 11
2545.9644
 21
2465.8448
  0
LINE
  8
_0-3_STR
  6
CONTINUOUS
 62
    7
 10
2623.5112
 20
2565.6359
 11
2623.5112
 21
2465.8448
  0
LINE
  8
_0-3_STR
  6
CONTINUOUS
 62
    7
 10
2525.0309
 20
2425.3696
 11
3325.0309
 21
2425.3696
  0
LINE
  8
_0-3_STR
  6
CONTINUOUS
 62
    7
 10
2525.0309
 20
2250.4883
 11
3325.0309
 21
2250.4883
  0
LINE
  8
_0-3_STR
  6
CONTINUOUS
 62
    7
 10
2525.0309
 20
2294.3169
 11
3325.0309
 21
2294.3169
  0
LINE
  8
_0-3_STR
  6
CONTINUOUS
 62
    7
 10
3325.0309
 20
2440.0131
 11
4625.0309
 21
2440.0131
  0
LINE
  8
_0-3_STR
  6
CONTINUOUS
 62
    7
 10
4625.0309
 20
2440.0131
 11
4625.0309
 21
2210.0131
  0
LINE
  8
_0-3_STR
  6
CONTINUOUS
 62
    7
 10
4625.0309
 20
2210.0131
 11
3325.0309
 21
2210.0131
  0
LINE
  8
_0-3_STR
  6
CONTINUOUS
 62
    7
 10
4626.421
 20
2385.8135
 11
3325.0309
 21
2385.8135
  0
LINE
  8
_0-3_STR
  6
CONTINUOUS
 62
    7
 10
4626.421
 20
2264.2126
 11
3325.0309
 21
2264.2126
  0
LINE
  8
_0-1_BMK
  6
CENTER2
 62
    1
 10
5793.0502
 20
2573.5006
 11
5793.0502
 21
3558.7673
  0
LINE
  8
_0-1_BMK
  6
CENTER2
 62
    1
 10
5193.4695
 20
2985.0131
 11
6555.6082
 21
2985.0131
  0
LINE
  8
_0-3_STR
  6
CONTINUOUS
 62
    7
 10
6293.0502
 20
2465.8448
 11
5293.0502
 21
2465.8448
  0
LINE
  8
_0-3_STR
  6
CONTINUOUS
 62
    7
 10
5293.0502
 20
2425.3696
 11
6293.0502
 21
2425.3696
  0
LINE
  8
_0-3_STR
  6
CONTINUOUS
 62
    7
 10
6293.0502
 20
2320.5407
 11
6168.8271
 21
2320.5407
  0
LINE
  8
_0-3_STR
  6
CONTINUOUS
 62
    7
 10
6168.8271
 20
2320.5407
 11
6168.8271
 21
2365.129
  0
LINE
  8
_0-3_STR
  6
CONTINUOUS
 62
    7
 10
6104.2731
 20
2425.3696
 11
6104.2731
 21
2365.129
  0
LINE
  8
_0-3_STR
  6
CONTINUOUS
 62
    7
 10
6104.2731
 20
2365.129
 11
6242.7708
 21
2365.129
  0
LINE
  8
_0-3_STR
  6
CONTINUOUS
 62
    7
 10
6242.7708
 20
2365.129
 11
6242.7708
 21
2424.9711
  0
LINE
  8
_0-3_STR
  6
CONTINUOUS
 62
    7
 10
5481.8273
 20
2425.3696
 11
5481.8273
 21
2365.129
  0
LINE
  8
_0-3_STR
  6
CONTINUOUS
 62
    7
 10
5481.8273
 20
2365.129
 11
5343.3296
 21
2365.129
  0
LINE
  8
_0-3_STR
  6
CONTINUOUS
 62
    7
 10
5343.3296
 20
2365.129
 11
5343.3296
 21
2424.9711
  0
LINE
  8
_0-3_STR
  6
CONTINUOUS
 62
    7
 10
5293.0502
 20
2320.5407
 11
5417.2733
 21
2320.5407
  0
LINE
  8
_0-3_STR
  6
CONTINUOUS
 62
    7
 10
5417.2733
 20
2320.5407
 11
5417.2733
 21
2365.129
  0
LINE
  8
_0-3_STR
  6
CONTINUOUS
 62
    7
 10
5343.0502
 20
2244.9914
 11
6243.0502
 21
2244.9914
  0
LINE
  8
_0-3_STR
  6
CONTINUOUS
 62
    7
 10
5343.0502
 20
2244.9914
 11
5343.0502
 21
2210.0131
  0
LINE
  8
_0-3_STR
  6
CONTINUOUS
 62
    7
 10
6243.0502
 20
2244.9914
 11
6243.0502
 21
2210.0131
  0
LINE
  8
_0-3_STR
  6
CONTINUOUS
 62
    7
 10
5481.8273
 20
2365.129
 11
5481.8273
 21
2244.9914
  0
LINE
  8
_0-3_STR
  6
CONTINUOUS
 62
    7
 10
5436.1019
 20
2365.129
 11
5436.1019
 21
2244.9914
  0
LINE
  8
_0-3_STR
  6
CONTINUOUS
 62
    7
 10
6104.2731
 20
2365.129
 11
6104.2731
 21
2244.9914
  0
LINE
  8
_0-3_STR
  6
CONTINUOUS
 62
    7
 10
6149.9985
 20
2365.129
 11
6149.9985
 21
2244.9914
  0
LINE
  8
_0-3_STR
  6
CONTINUOUS
 62
    7
 10
5343.0502
 20
2210.0131
 11
6243.0502
 21
2210.0131
  0
LINE
  8
_0-3_STR
  6
CONTINUOUS
 62
    7
 10
5293.0502
 20
2465.8448
 11
5293.0502
 21
2320.5407
  0
LINE
  8
_0-3_STR
  6
CONTINUOUS
 62
    7
 10
6293.0502
 20
2465.8448
 11
6293.0502
 21
2320.5407
  0
LINE
  8
_0-1_BMK
  6
CENTER2
 62
    1
 10
5793.0502
 20
2465.8448
 11
5793.0502
 21
2210.0131
  0
CIRCLE
  8
_0-3_STR
  6
CONTINUOUS
 62
    7
 10
5793.0502
 20
2337.9289
 40
65.596026
  0
LINE
  8
_0-3_STR
  6
CONTINUOUS
 62
    7
 10
5603.8244
 20
2244.9914
 11
5603.8244
 21
2316.6255
  0
LINE
  8
_0-3_STR
  6
CONTINUOUS
 62
    7
 10
5603.8244
 20
2316.6255
 11
5731.0099
 21
2316.6255
  0
LINE
  8
_0-3_STR
  6
CONTINUOUS
 62
    7
 10
5603.8244
 20
2280.8084
 11
5760.7998
 21
2280.8084
  0
LINE
  8
_0-3_STR
  6
CONTINUOUS
 62
    7
 10
5982.276
 20
2244.9914
 11
5982.276
 21
2316.6255
  0
LINE
  8
_0-3_STR
  6
CONTINUOUS
 62
    7
 10
5982.276
 20
2316.6255
 11
5855.0905
 21
2316.6255
  0
LINE
  8
_0-3_STR
  6
CONTINUOUS
 62
    7
 10
5982.276
 20
2280.8084
 11
5825.3006
 21
2280.8084
  0
LINE
  8
_0-3_STR
  6
CONTINUOUS
 62
    7
 10
5858.6462
 20
2337.9289
 11
5727.4542
 21
2337.9289
  0
LINE
  8
_0-3_STR
  6
CONTINUOUS
 62
    7
 10
5611.613
 20
2425.3696
 11
5611.613
 21
2377.445
  0
LINE
  8
_0-3_STR
  6
CONTINUOUS
 62
    7
 10
5611.613
 20
2377.445
 11
5740.6926
 21
2377.445
  0
LINE
  8
_0-3_STR
  6
CONTINUOUS
 62
    7
 10
5974.4874
 20
2425.3696
 11
5974.4874
 21
2377.445
  0
LINE
  8
_0-3_STR
  6
CONTINUOUS
 62
    7
 10
5974.4874
 20
2377.445
 11
5845.4078
 21
2377.445
  0
LINE
  8
_0-3_STR
  6
CONTINUOUS
 62
    7
 10
5343.0502
 20
2465.2754
 11
5343.0502
 21
2571.0232
  0
LINE
  8
_0-3_STR
  6
CONTINUOUS
 62
    7
 10
5343.0502
 20
2571.0232
 11
5417.2733
 21
2571.0232
  0
LINE
  8
_0-3_STR
  6
CONTINUOUS
 62
    7
 10
5417.2733
 20
2465.8448
 11
5417.2733
 21
2571.0232
  0
LINE
  8
_0-3_STR
  6
CONTINUOUS
 62
    7
 10
5436.1019
 20
2465.8448
 11
5436.1019
 21
2532.4065
  0
LINE
  8
_0-3_STR
  6
CONTINUOUS
 62
    7
 10
5436.1019
 20
2532.4065
 11
5527.4838
 21
2532.4065
  0
LINE
  8
_0-3_STR
  6
CONTINUOUS
 62
    7
 10
5534.8727
 20
2465.8448
 11
5534.8727
 21
2573.8293
  0
LINE
  8
_0-3_STR
  6
CONTINUOUS
 62
    7
 10
5534.8727
 20
2573.8293
 11
5603.9305
 21
2573.8293
  0
LINE
  8
_0-3_STR
  6
CONTINUOUS
 62
    7
 10
5603.9305
 20
2573.8293
 11
5603.9305
 21
2465.8448
  0
LINE
  8
_0-3_STR
  6
CONTINUOUS
 62
    7
 10
5527.4838
 20
2532.4065
 11
5527.4838
 21
2465.8448
  0
LINE
  8
_0-3_STR
  6
CONTINUOUS
 62
    7
 10
6243.0502
 20
2465.2754
 11
6243.0502
 21
2571.0232
  0
LINE
  8
_0-3_STR
  6
CONTINUOUS
 62
    7
 10
6243.0502
 20
2571.0232
 11
6168.8271
 21
2571.0232
  0
LINE
  8
_0-3_STR
  6
CONTINUOUS
 62
    7
 10
6168.8271
 20
2465.8448
 11
6168.8271
 21
2571.0232
  0
LINE
  8
_0-3_STR
  6
CONTINUOUS
 62
    7
 10
6149.9985
 20
2465.8448
 11
6149.9985
 21
2532.4065
  0
LINE
  8
_0-3_STR
  6
CONTINUOUS
 62
    7
 10
6149.9985
 20
2532.4065
 11
6058.6166
 21
2532.4065
  0
LINE
  8
_0-3_STR
  6
CONTINUOUS
 62
    7
 10
6051.2277
 20
2465.8448
 11
6051.2277
 21
2573.8293
  0
LINE
  8
_0-3_STR
  6
CONTINUOUS
 62
    7
 10
6051.2277
 20
2573.8293
 11
5982.17
 21
2573.8293
  0
LINE
  8
_0-3_STR
  6
CONTINUOUS
 62
    7
 10
5982.17
 20
2573.8293
 11
5982.17
 21
2465.8448
  0
LINE
  8
_0-3_STR
  6
CONTINUOUS
 62
    7
 10
6058.6166
 20
2532.4065
 11
6058.6166
 21
2465.8448
  0
LINE
  8
_0-1_BMK
  6
CENTER2
 62
    1
 10
5569.4016
 20
2573.8293
 11
5569.4016
 21
2322.7016
  0
LINE
  8
_0-1_BMK
  6
CENTER2
 62
    1
 10
6016.6988
 20
2573.8293
 11
6016.6988
 21
2322.7016
  0
LINE
  8
_0-3_STR
  6
CONTINUOUS
 62
    7
 10
5513.7787
 20
3460.0131
 11
5353.0502
 21
3333.2523
  0
LINE
  8
_0-3_STR
  6
CONTINUOUS
 62
    7
 10
5534.8727
 20
2546.549
 11
5353.0502
 21
2689.9458
  0
LINE
  8
_0-3_STR
  6
CONTINUOUS
 62
    7
 10
5353.0502
 20
2689.9458
 11
5353.0502
 21
3333.2523
  0
LINE
  8
_0-3_STR
  6
CONTINUOUS
 62
    7
 10
6072.3217
 20
3460.0131
 11
6233.0502
 21
3333.2523
  0
LINE
  8
_0-3_STR
  6
CONTINUOUS
 62
    7
 10
6233.0502
 20
2689.9458
 11
6233.0502
 21
3333.2523
  0
CIRCLE
  8
_0-3_STR
  6
CONTINUOUS
 62
    7
 10
5793.0502
 20
2985.0131
 40
47.56389
  0
CIRCLE
  8
_0-3_STR
  6
CONTINUOUS
 62
    7
 10
5793.0502
 20
2985.0131
 40
143.38988
  0
CIRCLE
  8
_0-3_STR
  6
CONTINUOUS
 62
    7
 10
5793.0502
 20
2985.0131
 40
263.59021
  0
CIRCLE
  8
_0-3_STR
  6
CONTINUOUS
 62
    7
 10
5793.0502
 20
2985.0131
 40
381.51251
  0
LINE
  8
_0-3_STR
  6
CONTINUOUS
 62
    7
 10
5513.7787
 20
3460.0131
 11
6076.929
 21
3460.0131
  0
LINE
  8
_0-3_STR
  6
CONTINUOUS
 62
    7
 10
5715.8464
 20
3325.8071
 11
5715.8464
 21
3171.3995
  0
LINE
  8
_0-3_STR
  6
CONTINUOUS
 62
    7
 10
5870.254
 20
3325.8071
 11
5870.254
 21
3171.3995
  0
LINE
  8
_0-1_BMK
  6
CENTER2
 62
    1
 10
5908.6637
 20
3100.6266
 11
6051.6504
 21
3243.6133
  0
LINE
  8
_0-3_STR
  6
CONTINUOUS
 62
    7
 10
5353.0502
 20
2846.5469
 11
5437.5521
 21
2846.5469
  0
LINE
  8
_0-3_STR
  6
CONTINUOUS
 62
    7
 10
6148.5483
 20
2846.5469
 11
6233.0502
 21
2846.5469
  0
LINE
  8
_0-3_STR
  6
CONTINUOUS
 62
    7
 10
6051.2277
 20
2546.549
 11
6233.0502
 21
2689.9458
  0
ARC
  8
_0-3_STR
  6
CONTINUOUS
 62
    7
 10
5793.0502
 20
2985.0131
 40
603.98408
 50
217.34236
 51
322.65763
  0
LINE
  8
_0-3_STR
  6
CONTINUOUS
 62
    7
 10
5603.9305
 20
2472.5021
 11
5982.17
 21
2472.5021
  0
LINE
  8
_0-3_STR
  6
CONTINUOUS
 62
    7
 10
2721.3555
 20
2603.5006
 11
2577.8306
 21
2603.5006
  0
LINE
  8
_0-3_STR
  6
CONTINUOUS
 62
    7
 10
2760.4615
 20
2510.0131
 11
2805.1938
 21
2510.0131
  0
LINE
  8
_0-3_STR
  6
CONTINUOUS
 62
    7
 10
2879.5161
 20
2531.8173
 11
2805.1938
 21
2531.8173
  0
LINE
  8
_0-3_STR
  6
CONTINUOUS
 62
    7
 10
2879.5161
 20
2531.8173
 11
2953.8384
 21
2531.8173
  0
LINE
  8
_0-3_STR
  6
CONTINUOUS
 62
    7
 10
2998.5707
 20
2510.0131
 11
2953.8384
 21
2510.0131
  0
LINE
  8
_0-1_BMK
  6
CENTER2
 62
    1
 10
5380.1617
 20
2571.0232
 11
5380.1617
 21
2319.8955
  0
LINE
  8
_0-1_BMK
  6
CENTER2
 62
    1
 10
6205.9387
 20
2571.0232
 11
6205.9387
 21
2319.8955
  0
CIRCLE
  8
_0-3_STR
  6
CONTINUOUS
 62
    7
 10
5793.0502
 20
3248.6033
 40
57.203785
  0
LINE
  8
_0-3_STR
  6
CONTINUOUS
 62
    7
 10
5870.254
 20
3325.8071
 11
5715.8464
 21
3325.8071
  0
LINE
  8
_0-3_STR
  6
CONTINUOUS
 62
    7
 10
5497.4811
 20
3171.3995
 11
5606.6638
 21
3062.2169
  0
LINE
  8
_0-3_STR
  6
CONTINUOUS
 62
    7
 10
5606.6638
 20
3280.5821
 11
5715.8464
 21
3171.3995
  0
CIRCLE
  8
_0-3_STR
  6
CONTINUOUS
 62
    7
 10
5606.6638
 20
3171.3995
 40
57.203785
  0
LINE
  8
_0-3_STR
  6
CONTINUOUS
 62
    7
 10
5606.6638
 20
3280.5821
 11
5497.4811
 21
3171.3995
  0
LINE
  8
_0-3_STR
  6
CONTINUOUS
 62
    7
 10
5452.2562
 20
2907.8093
 11
5606.6638
 21
2907.8093
  0
LINE
  8
_0-3_STR
  6
CONTINUOUS
 62
    7
 10
5452.2562
 20
3062.2169
 11
5606.6638
 21
3062.2169
  0
CIRCLE
  8
_0-3_STR
  6
CONTINUOUS
 62
    7
 10
5529.46
 20
2985.0131
 40
57.203785
  0
LINE
  8
_0-3_STR
  6
CONTINUOUS
 62
    7
 10
5452.2562
 20
3062.2169
 11
5452.2562
 21
2907.8093
  0
LINE
  8
_0-3_STR
  6
CONTINUOUS
 62
    7
 10
5606.6638
 20
2689.444
 11
5715.8464
 21
2798.6266
  0
LINE
  8
_0-3_STR
  6
CONTINUOUS
 62
    7
 10
5497.4811
 20
2798.6266
 11
5606.6638
 21
2907.8093
  0
CIRCLE
  8
_0-3_STR
  6
CONTINUOUS
 62
    7
 10
5606.6638
 20
2798.6266
 40
57.203785
  0
LINE
  8
_0-3_STR
  6
CONTINUOUS
 62
    7
 10
5497.4811
 20
2798.6266
 11
5606.6638
 21
2689.444
  0
LINE
  8
_0-3_STR
  6
CONTINUOUS
 62
    7
 10
5870.254
 20
2644.2191
 11
5870.254
 21
2798.6266
  0
LINE
  8
_0-3_STR
  6
CONTINUOUS
 62
    7
 10
5715.8464
 20
2644.2191
 11
5715.8464
 21
2798.6266
  0
CIRCLE
  8
_0-3_STR
  6
CONTINUOUS
 62
    7
 10
5793.0502
 20
2721.4229
 40
57.203785
  0
LINE
  8
_0-3_STR
  6
CONTINUOUS
 62
    7
 10
5715.8464
 20
2644.2191
 11
5870.254
 21
2644.2191
  0
LINE
  8
_0-3_STR
  6
CONTINUOUS
 62
    7
 10
6088.6193
 20
2798.6266
 11
5979.4366
 21
2907.8093
  0
LINE
  8
_0-3_STR
  6
CONTINUOUS
 62
    7
 10
5979.4366
 20
2689.444
 11
5870.254
 21
2798.6266
  0
CIRCLE
  8
_0-3_STR
  6
CONTINUOUS
 62
    7
 10
5979.4366
 20
2798.6266
 40
57.203785
  0
LINE
  8
_0-3_STR
  6
CONTINUOUS
 62
    7
 10
5979.4366
 20
2689.444
 11
6088.6193
 21
2798.6266
  0
LINE
  8
_0-3_STR
  6
CONTINUOUS
 62
    7
 10
6133.8442
 20
3062.2169
 11
5979.4366
 21
3062.2169
  0
LINE
  8
_0-3_STR
  6
CONTINUOUS
 62
    7
 10
6133.8442
 20
2907.8093
 11
5979.4366
 21
2907.8093
  0
CIRCLE
  8
_0-3_STR
  6
CONTINUOUS
 62
    7
 10
6056.6404
 20
2985.0131
 40
57.203785
  0
LINE
  8
_0-3_STR
  6
CONTINUOUS
 62
    7
 10
6133.8442
 20
2907.8093
 11
6133.8442
 21
3062.2169
  0
LINE
  8
_0-3_STR
  6
CONTINUOUS
 62
    7
 10
5979.4366
 20
3280.5821
 11
5870.254
 21
3171.3995
  0
LINE
  8
_0-3_STR
  6
CONTINUOUS
 62
    7
 10
6088.6193
 20
3171.3995
 11
5979.4366
 21
3062.2169
  0
CIRCLE
  8
_0-3_STR
  6
CONTINUOUS
 62
    7
 10
5979.4366
 20
3171.3995
 40
57.203785
  0
LINE
  8
_0-3_STR
  6
CONTINUOUS
 62
    7
 10
6088.6193
 20
3171.3995
 11
5979.4366
 21
3280.5821
  0
LINE
  8
_0-1_BMK
  6
CENTER2
 62
    1
 10
5677.4367
 20
3100.6266
 11
5534.45
 21
3243.6133
  0
LINE
  8
_0-1_BMK
  6
CENTER2
 62
    1
 10
5677.4367
 20
2869.3995
 11
5534.45
 21
2726.4129
  0
LINE
  8
_0-1_BMK
  6
CENTER2
 62
    1
 10
5908.6637
 20
2869.3995
 11
6051.6504
 21
2726.4129
  0
LINE
  8
_0-3_STR
  6
CONTINUOUS
 62
    7
 10
2760.4615
 20
3325.8071
 11
2577.8306
 21
3325.8071
  0
LINE
  8
_0-3_STR
  6
CONTINUOUS
 62
    7
 10
2721.3555
 20
2644.2191
 11
2577.8306
 21
2644.2191
  0
LINE
  8
_0-3_STR
  6
CONTINUOUS
 62
    7
 10
5715.8464
 20
3171.3995
 11
5606.6638
 21
3062.2169
  0
LINE
  8
_0-3_STR
  6
CONTINUOUS
 62
    7
 10
5606.6638
 20
3062.2169
 11
5606.6638
 21
2907.8093
  0
LINE
  8
_0-3_STR
  6
CONTINUOUS
 62
    7
 10
5606.6638
 20
2907.8093
 11
5715.8464
 21
2798.6266
  0
LINE
  8
_0-3_STR
  6
CONTINUOUS
 62
    7
 10
5715.8464
 20
2798.6266
 11
5870.254
 21
2798.6266
  0
LINE
  8
_0-3_STR
  6
CONTINUOUS
 62
    7
 10
5870.254
 20
2798.6266
 11
5979.4366
 21
2907.8093
  0
LINE
  8
_0-3_STR
  6
CONTINUOUS
 62
    7
 10
5979.4366
 20
2907.8093
 11
5979.4366
 21
3062.2169
  0
LINE
  8
_0-3_STR
  6
CONTINUOUS
 62
    7
 10
5979.4366
 20
3062.2169
 11
5870.254
 21
3171.3995
  0
LINE
  8
_0-3_STR
  6
CONTINUOUS
 62
    7
 10
5870.254
 20
3171.3995
 11
5715.8464
 21
3171.3995
  0
LINE
  8
_0-3_STR
  6
CONTINUOUS
 62
    7
 10
2721.3555
 20
2839.1046
 11
2728.7978
 21
2846.5469
  0
LINE
  8
_0-3_STR
  6
CONTINUOUS
 62
    7
 10
2721.3555
 20
2812.1638
 11
2755.7386
 21
2846.5469
  0
LINE
  8
_0-3_STR
  6
CONTINUOUS
 62
    7
 10
2721.3555
 20
2785.2231
 11
2760.4615
 21
2824.3291
  0
LINE
  8
_0-3_STR
  6
CONTINUOUS
 62
    7
 10
2721.3555
 20
2758.2823
 11
2760.4615
 21
2797.3884
  0
LINE
  8
_0-3_STR
  6
CONTINUOUS
 62
    7
 10
2721.3555
 20
2731.3415
 11
2760.4615
 21
2770.4476
  0
LINE
  8
_0-3_STR
  6
CONTINUOUS
 62
    7
 10
2721.3555
 20
2704.4008
 11
2760.4615
 21
2743.5068
  0
LINE
  8
_0-3_STR
  6
CONTINUOUS
 62
    7
 10
2721.3555
 20
2677.46
 11
2760.4615
 21
2716.5661
  0
LINE
  8
_0-3_STR
  6
CONTINUOUS
 62
    7
 10
2721.3555
 20
2650.5192
 11
2760.4615
 21
2689.6253
  0
LINE
  8
_0-3_STR
  6
CONTINUOUS
 62
    7
 10
2721.3555
 20
2623.5785
 11
2760.4615
 21
2662.6845
  0
LINE
  8
_0-3_STR
  6
CONTINUOUS
 62
    7
 10
2721.3555
 20
2596.6377
 11
2760.4615
 21
2635.7438
  0
LINE
  8
_0-3_STR
  6
CONTINUOUS
 62
    7
 10
2721.3555
 20
2569.6969
 11
2760.4615
 21
2608.803
  0
LINE
  8
_0-3_STR
  6
CONTINUOUS
 62
    7
 10
2721.3555
 20
2542.7561
 11
2760.4615
 21
2581.8622
  0
LINE
  8
_0-3_STR
  6
CONTINUOUS
 62
    7
 10
2998.5707
 20
2819.9714
 11
3025.1463
 21
2846.5469
  0
LINE
  8
_0-3_STR
  6
CONTINUOUS
 62
    7
 10
2721.3555
 20
2515.8154
 11
2760.4615
 21
2554.9214
  0
LINE
  8
_0-3_STR
  6
CONTINUOUS
 62
    7
 10
2998.5707
 20
2793.0307
 11
3037.6768
 21
2832.1367
  0
LINE
  8
_0-3_STR
  6
CONTINUOUS
 62
    7
 10
2721.3555
 20
2488.8746
 11
2760.4615
 21
2527.9807
  0
LINE
  8
_0-3_STR
  6
CONTINUOUS
 62
    7
 10
2998.5707
 20
2766.0899
 11
3037.6768
 21
2805.1959
  0
LINE
  8
_0-3_STR
  6
CONTINUOUS
 62
    7
 10
2725.2664
 20
2465.8448
 11
2760.4615
 21
2501.0399
  0
LINE
  8
_0-3_STR
  6
CONTINUOUS
 62
    7
 10
2998.5707
 20
2739.1491
 11
3037.6768
 21
2778.2552
  0
LINE
  8
_0-3_STR
  6
CONTINUOUS
 62
    7
 10
2752.2072
 20
2465.8448
 11
2784.4951
 21
2498.1327
  0
LINE
  8
_0-3_STR
  6
CONTINUOUS
 62
    7
 10
2998.5707
 20
2712.2083
 11
3037.6768
 21
2751.3144
  0
LINE
  8
_0-3_STR
  6
CONTINUOUS
 62
    7
 10
2779.148
 20
2465.8448
 11
2811.4359
 21
2498.1327
  0
LINE
  8
_0-3_STR
  6
CONTINUOUS
 62
    7
 10
2998.5707
 20
2685.2676
 11
3037.6768
 21
2724.3736
  0
LINE
  8
_0-3_STR
  6
CONTINUOUS
 62
    7
 10
2806.0887
 20
2465.8448
 11
2838.3767
 21
2498.1327
  0
LINE
  8
_0-3_STR
  6
CONTINUOUS
 62
    7
 10
2998.5707
 20
2658.3268
 11
3037.6768
 21
2697.4329
  0
LINE
  8
_0-3_STR
  6
CONTINUOUS
 62
    7
 10
2833.0295
 20
2465.8448
 11
2865.3175
 21
2498.1327
  0
LINE
  8
_0-3_STR
  6
CONTINUOUS
 62
    7
 10
2998.5707
 20
2631.386
 11
3037.6768
 21
2670.4921
  0
LINE
  8
_0-3_STR
  6
CONTINUOUS
 62
    7
 10
2859.9703
 20
2465.8448
 11
2892.2582
 21
2498.1327
  0
LINE
  8
_0-3_STR
  6
CONTINUOUS
 62
    7
 10
2998.5707
 20
2604.4453
 11
3037.6768
 21
2643.5513
  0
LINE
  8
_0-3_STR
  6
CONTINUOUS
 62
    7
 10
2886.911
 20
2465.8448
 11
2919.199
 21
2498.1327
  0
LINE
  8
_0-3_STR
  6
CONTINUOUS
 62
    7
 10
2998.5707
 20
2577.5045
 11
3037.6768
 21
2616.6106
  0
LINE
  8
_0-3_STR
  6
CONTINUOUS
 62
    7
 10
2913.8518
 20
2465.8448
 11
2946.1398
 21
2498.1327
  0
LINE
  8
_0-3_STR
  6
CONTINUOUS
 62
    7
 10
2998.5707
 20
2550.5637
 11
3037.6768
 21
2589.6698
  0
LINE
  8
_0-3_STR
  6
CONTINUOUS
 62
    7
 10
2940.7926
 20
2465.8448
 11
2973.0805
 21
2498.1327
  0
LINE
  8
_0-3_STR
  6
CONTINUOUS
 62
    7
 10
2998.5707
 20
2523.623
 11
3037.6768
 21
2562.729
  0
LINE
  8
_0-3_STR
  6
CONTINUOUS
 62
    7
 10
2967.7333
 20
2465.8448
 11
3037.6768
 21
2535.7883
  0
LINE
  8
_0-3_STR
  6
CONTINUOUS
 62
    7
 10
2994.6741
 20
2465.8448
 11
3037.6768
 21
2508.8475
  0
LINE
  8
_0-3_STR
  6
CONTINUOUS
 62
    7
 10
3021.6149
 20
2465.8448
 11
3037.6768
 21
2481.9067
  0
LINE
  8
_0-3_STR
  6
CONTINUOUS
 62
    7
 10
5343.0502
 20
2179.3881
 11
5343.0502
 21
1996.9336
  0
LINE
  8
_0-3_STR
  6
CONTINUOUS
 62
    7
 10
6243.0502
 20
2179.3881
 11
6243.0502
 21
1996.9336
  0
LINE
  8
_0-3_STR
  6
CONTINUOUS
 62
    7
 10
5363.0502
 20
1998.1836
 11
6223.0502
 21
1998.1836
  0
LINE
  8
_0-3_STR
  6
CONTINUOUS
 62
    7
 10
5293.0502
 20
2178.7631
 11
5293.0502
 21
1857.8606
  0
LINE
  8
_0-3_STR
  6
CONTINUOUS
 62
    7
 10
6293.0502
 20
2178.7631
 11
6293.0502
 21
1857.8606
  0
LINE
  8
_0-3_STR
  6
CONTINUOUS
 62
    7
 10
5313.0502
 20
1859.1106
 11
6273.0502
 21
1859.1106
  0
LINE
  8
_0-3_STR
  6
CONTINUOUS
 62
    7
 10
6526.2332
 20
2985.0131
 11
6525.6082
 21
2985.0131
  0
LINE
  8
_0-3_STR
  6
CONTINUOUS
 62
    7
 10
6294.3002
 20
2210.0131
 11
6528.1082
 21
2210.0131
  0
LINE
  8
_0-3_STR
  6
CONTINUOUS
 62
    7
 10
6526.8582
 20
2965.0131
 11
6526.8582
 21
2230.0131
  0
LINE
  8
_0-3_STR
  6
CONTINUOUS
 62
    7
 10
6263.6752
 20
3460.0131
 11
6710.2193
 21
3460.0131
  0
LINE
  8
_0-3_STR
  6
CONTINUOUS
 62
    7
 10
6293.6752
 20
2210.0131
 11
6710.2193
 21
2210.0131
  0
LINE
  8
_0-3_STR
  6
CONTINUOUS
 62
    7
 10
6708.9693
 20
3440.0131
 11
6708.9693
 21
2230.0131
  0
LINE
  8
_0-3_STR
  6
CONTINUOUS
 62
    7
 10
5353.0502
 20
3490.6381
 11
5353.0502
 21
3697.0673
  0
LINE
  8
_0-3_STR
  6
CONTINUOUS
 62
    7
 10
6233.0502
 20
3490.6381
 11
6233.0502
 21
3697.0673
  0
LINE
  8
_0-3_STR
  6
CONTINUOUS
 62
    7
 10
5373.0502
 20
3695.8173
 11
6213.0502
 21
3695.8173
  0
LINE
  8
_0-3_STR
  6
CONTINUOUS
 62
    7
 10
4228.6559
 20
2440.0131
 11
4387.9659
 21
2440.0131
  0
LINE
  8
_0-3_STR
  6
CONTINUOUS
 62
    7
 10
4228.6559
 20
2210.0131
 11
4387.9659
 21
2210.0131
  0
LINE
  8
_0-3_STR
  6
CONTINUOUS
 62
    7
 10
4386.7159
 20
2420.0131
 11
4386.7159
 21
2230.0131
  0
LINE
  8
_0-3_STR
  6
CONTINUOUS
 62
    7
 10
3325.0309
 20
2178.7631
 11
3325.0309
 21
1953.0616
  0
LINE
  8
_0-3_STR
  6
CONTINUOUS
 62
    7
 10
4625.0309
 20
2178.7631
 11
4625.0309
 21
1953.0616
  0
LINE
  8
_0-3_STR
  6
CONTINUOUS
 62
    7
 10
3345.0309
 20
1954.3116
 11
4605.0309
 21
1954.3116
  0
LINE
  8
_0-3_STR
  6
CONTINUOUS
 62
    7
 10
2525.0309
 20
2179.3881
 11
2525.0309
 21
1953.0616
  0
LINE
  8
_0-3_STR
  6
CONTINUOUS
 62
    7
 10
3325.0309
 20
2179.3881
 11
3325.0309
 21
1953.0616
  0
LINE
  8
_0-3_STR
  6
CONTINUOUS
 62
    7
 10
2545.0309
 20
1954.3116
 11
3305.0309
 21
1954.3116
  0
LINE
  8
_0-3_STR
  6
CONTINUOUS
 62
    7
 10
2368.0309
 20
2178.7631
 11
2368.0309
 21
1953.0616
  0
LINE
  8
_0-3_STR
  6
CONTINUOUS
 62
    7
 10
2525.0309
 20
2178.7631
 11
2525.0309
 21
1953.0616
  0
LINE
  8
_0-3_STR
  6
CONTINUOUS
 62
    7
 10
2388.0309
 20
1954.3116
 11
2505.0309
 21
1954.3116
  0
LINE
  8
_0-3_STR
  6
CONTINUOUS
 62
    7
 10
2368.0309
 20
2179.3881
 11
2368.0309
 21
1850.5086
  0
LINE
  8
_0-3_STR
  6
CONTINUOUS
 62
    7
 10
4625.0309
 20
2179.3881
 11
4625.0309
 21
1850.5086
  0
LINE
  8
_0-3_STR
  6
CONTINUOUS
 62
    7
 10
2388.0309
 20
1851.7586
 11
4605.0309
 21
1851.7586
  0
LINE
  8
_0-3_STR
  6
CONTINUOUS
 62
    7
 10
3625.6684
 20
2985.0131
 11
3845.4046
 21
2985.0131
  0
LINE
  8
_0-3_STR
  6
CONTINUOUS
 62
    7
 10
3625.6684
 20
2210.0131
 11
3845.4046
 21
2210.0131
  0
LINE
  8
_0-3_STR
  6
CONTINUOUS
 62
    7
 10
3844.1546
 20
2965.0131
 11
3844.1546
 21
2230.0131
  0
LINE
  8
_0-3_STR
  6
CONTINUOUS
 62
    7
 10
3068.0309
 20
3456.929
 11
3068.0309
 21
3651.9072
  0
LINE
  8
_0-3_STR
  6
CONTINUOUS
 62
    7
 10
2368.0309
 20
3456.929
 11
2368.0309
 21
3651.9072
  0
LINE
  8
_0-3_STR
  6
CONTINUOUS
 62
    7
 10
3048.0309
 20
3650.6572
 11
2388.0309
 21
3650.6572
  0
LINE
  8
_0-3_STR
  6
CONTINUOUS
 62
    7
 10
5353.0502
 20
2803.6633
 11
5395.9339
 21
2846.5469
  0
LINE
  8
_0-3_STR
  6
CONTINUOUS
 62
    7
 10
5353.0502
 20
2758.762
 11
5438.4789
 21
2844.1906
  0
LINE
  8
_0-3_STR
  6
CONTINUOUS
 62
    7
 10
5353.0502
 20
2713.8607
 11
5452.4067
 21
2813.2172
  0
LINE
  8
_0-3_STR
  6
CONTINUOUS
 62
    7
 10
5364.7832
 20
2680.6924
 11
5468.5218
 21
2784.4311
  0
LINE
  8
_0-3_STR
  6
CONTINUOUS
 62
    7
 10
5389.8864
 20
2660.8944
 11
5486.6684
 21
2757.6763
  0
LINE
  8
_0-3_STR
  6
CONTINUOUS
 62
    7
 10
5414.9897
 20
2641.0964
 11
5506.7489
 21
2732.8556
  0
LINE
  8
_0-3_STR
  6
CONTINUOUS
 62
    7
 10
5440.093
 20
2621.2983
 11
5528.7125
 21
2709.9179
  0
LINE
  8
_0-3_STR
  6
CONTINUOUS
 62
    7
 10
5465.1962
 20
2601.5003
 11
5552.5488
 21
2688.8529
  0
LINE
  8
_0-3_STR
  6
CONTINUOUS
 62
    7
 10
5490.2995
 20
2581.7023
 11
5578.2872
 21
2669.69
  0
LINE
  8
_0-3_STR
  6
CONTINUOUS
 62
    7
 10
5515.4027
 20
2561.9042
 11
5605.9999
 21
2652.5014
  0
LINE
  8
_0-3_STR
  6
CONTINUOUS
 62
    7
 10
5572.229
 20
2573.8293
 11
5635.8104
 21
2637.4106
  0
LINE
  8
_0-3_STR
  6
CONTINUOUS
 62
    7
 10
5603.9305
 20
2560.6294
 11
5667.9094
 21
2624.6083
  0
LINE
  8
_0-3_STR
  6
CONTINUOUS
 62
    7
 10
5603.9305
 20
2515.7281
 11
5702.5839
 21
2614.3816
  0
LINE
  8
_0-3_STR
  6
CONTINUOUS
 62
    7
 10
5605.6056
 20
2472.5021
 11
5740.2724
 21
2607.1688
  0
LINE
  8
_0-3_STR
  6
CONTINUOUS
 62
    7
 10
5650.5069
 20
2472.5021
 11
5781.675
 21
2603.6702
  0
LINE
  8
_0-3_STR
  6
CONTINUOUS
 62
    7
 10
5695.4082
 20
2472.5021
 11
5828.012
 21
2605.1059
  0
LINE
  8
_0-3_STR
  6
CONTINUOUS
 62
    7
 10
5740.3095
 20
2472.5021
 11
5881.7662
 21
2613.9588
  0
LINE
  8
_0-3_STR
  6
CONTINUOUS
 62
    7
 10
5785.2108
 20
2472.5021
 11
5949.9787
 21
2637.27
  0
LINE
  8
_0-3_STR
  6
CONTINUOUS
 62
    7
 10
6140.7933
 20
2828.0846
 11
6159.2556
 21
2846.5469
  0
LINE
  8
_0-3_STR
  6
CONTINUOUS
 62
    7
 10
5830.112
 20
2472.5021
 11
6204.1569
 21
2846.5469
  0
LINE
  8
_0-3_STR
  6
CONTINUOUS
 62
    7
 10
5875.0133
 20
2472.5021
 11
6233.0502
 21
2830.5389
  0
LINE
  8
_0-3_STR
  6
CONTINUOUS
 62
    7
 10
5919.9146
 20
2472.5021
 11
5982.17
 21
2534.7574
  0
LINE
  8
_0-3_STR
  6
CONTINUOUS
 62
    7
 10
6021.2418
 20
2573.8293
 11
6233.0502
 21
2785.6376
  0
LINE
  8
_0-3_STR
  6
CONTINUOUS
 62
    7
 10
5964.8159
 20
2472.5021
 11
5982.17
 21
2489.8561
  0
LINE
  8
_0-3_STR
  6
CONTINUOUS
 62
    7
 10
6051.2277
 20
2558.9139
 11
6233.0502
 21
2740.7364
  0
LINE
  8
_0-3_STR
  6
CONTINUOUS
 62
    7
 10
6205.1833
 20
2667.9681
 11
6233.0502
 21
2695.8351
  0
LINE
  8
_0-3_STR
  6
CONTINUOUS
 62
    7
 10
2388.0309
 20
3645.2982
 11
2368.0309
 21
3650.6572
  0
LINE
  8
_0-3_STR
  6
CONTINUOUS
 62
    7
 10
2368.0309
 20
3650.6572
 11
2388.0309
 21
3656.0162
  0
LINE
  8
_0-3_STR
  6
CONTINUOUS
 62
    7
 10
2368.0309
 20
3650.6572
 11
2388.0309
 21
3650.6572
  0
LINE
  8
_0-3_STR
  6
CONTINUOUS
 62
    7
 10
3048.0309
 20
3656.0162
 11
3068.0309
 21
3650.6572
  0
LINE
  8
_0-3_STR
  6
CONTINUOUS
 62
    7
 10
3068.0309
 20
3650.6572
 11
3048.0309
 21
3645.2982
  0
LINE
  8
_0-3_STR
  6
CONTINUOUS
 62
    7
 10
3068.0309
 20
3650.6572
 11
3048.0309
 21
3650.6572
  0
LINE
  8
_0-3_STR
  6
CONTINUOUS
 62
    7
 10
3849.5136
 20
2230.0131
 11
3844.1546
 21
2210.0131
  0
LINE
  8
_0-3_STR
  6
CONTINUOUS
 62
    7
 10
3844.1546
 20
2210.0131
 11
3838.7956
 21
2230.0131
  0
LINE
  8
_0-3_STR
  6
CONTINUOUS
 62
    7
 10
3844.1546
 20
2210.0131
 11
3844.1546
 21
2230.0131
  0
LINE
  8
_0-3_STR
  6
CONTINUOUS
 62
    7
 10
3838.7956
 20
2965.0131
 11
3844.1546
 21
2985.0131
  0
LINE
  8
_0-3_STR
  6
CONTINUOUS
 62
    7
 10
3844.1546
 20
2985.0131
 11
3849.5136
 21
2965.0131
  0
LINE
  8
_0-3_STR
  6
CONTINUOUS
 62
    7
 10
3844.1546
 20
2985.0131
 11
3844.1546
 21
2965.0131
  0
LINE
  8
_0-3_STR
  6
CONTINUOUS
 62
    7
 10
4605.0309
 20
1857.1176
 11
4625.0309
 21
1851.7586
  0
LINE
  8
_0-3_STR
  6
CONTINUOUS
 62
    7
 10
4625.0309
 20
1851.7586
 11
4605.0309
 21
1846.3996
  0
LINE
  8
_0-3_STR
  6
CONTINUOUS
 62
    7
 10
4625.0309
 20
1851.7586
 11
4605.0309
 21
1851.7586
  0
LINE
  8
_0-3_STR
  6
CONTINUOUS
 62
    7
 10
2388.0309
 20
1846.3996
 11
2368.0309
 21
1851.7586
  0
LINE
  8
_0-3_STR
  6
CONTINUOUS
 62
    7
 10
2368.0309
 20
1851.7586
 11
2388.0309
 21
1857.1176
  0
LINE
  8
_0-3_STR
  6
CONTINUOUS
 62
    7
 10
2368.0309
 20
1851.7586
 11
2388.0309
 21
1851.7586
  0
LINE
  8
_0-3_STR
  6
CONTINUOUS
 62
    7
 10
2505.0309
 20
1959.6706
 11
2525.0309
 21
1954.3116
  0
LINE
  8
_0-3_STR
  6
CONTINUOUS
 62
    7
 10
2525.0309
 20
1954.3116
 11
2505.0309
 21
1948.9526
  0
LINE
  8
_0-3_STR
  6
CONTINUOUS
 62
    7
 10
2525.0309
 20
1954.3116
 11
2505.0309
 21
1954.3116
  0
LINE
  8
_0-3_STR
  6
CONTINUOUS
 62
    7
 10
2388.0309
 20
1948.9526
 11
2368.0309
 21
1954.3116
  0
LINE
  8
_0-3_STR
  6
CONTINUOUS
 62
    7
 10
2368.0309
 20
1954.3116
 11
2388.0309
 21
1959.6706
  0
LINE
  8
_0-3_STR
  6
CONTINUOUS
 62
    7
 10
2368.0309
 20
1954.3116
 11
2388.0309
 21
1954.3116
  0
LINE
  8
_0-3_STR
  6
CONTINUOUS
 62
    7
 10
3305.0309
 20
1959.6706
 11
3325.0309
 21
1954.3116
  0
LINE
  8
_0-3_STR
  6
CONTINUOUS
 62
    7
 10
3325.0309
 20
1954.3116
 11
3305.0309
 21
1948.9526
  0
LINE
  8
_0-3_STR
  6
CONTINUOUS
 62
    7
 10
3325.0309
 20
1954.3116
 11
3305.0309
 21
1954.3116
  0
LINE
  8
_0-3_STR
  6
CONTINUOUS
 62
    7
 10
2545.0309
 20
1948.9526
 11
2525.0309
 21
1954.3116
  0
LINE
  8
_0-3_STR
  6
CONTINUOUS
 62
    7
 10
2525.0309
 20
1954.3116
 11
2545.0309
 21
1959.6706
  0
LINE
  8
_0-3_STR
  6
CONTINUOUS
 62
    7
 10
2525.0309
 20
1954.3116
 11
2545.0309
 21
1954.3116
  0
LINE
  8
_0-3_STR
  6
CONTINUOUS
 62
    7
 10
4605.0309
 20
1959.6706
 11
4625.0309
 21
1954.3116
  0
LINE
  8
_0-3_STR
  6
CONTINUOUS
 62
    7
 10
4625.0309
 20
1954.3116
 11
4605.0309
 21
1948.9526
  0
LINE
  8
_0-3_STR
  6
CONTINUOUS
 62
    7
 10
4625.0309
 20
1954.3116
 11
4605.0309
 21
1954.3116
  0
LINE
  8
_0-3_STR
  6
CONTINUOUS
 62
    7
 10
3345.0309
 20
1948.9526
 11
3325.0309
 21
1954.3116
  0
LINE
  8
_0-3_STR
  6
CONTINUOUS
 62
    7
 10
3325.0309
 20
1954.3116
 11
3345.0309
 21
1959.6706
  0
LINE
  8
_0-3_STR
  6
CONTINUOUS
 62
    7
 10
3325.0309
 20
1954.3116
 11
3345.0309
 21
1954.3116
  0
LINE
  8
_0-3_STR
  6
CONTINUOUS
 62
    7
 10
4392.0748
 20
2230.0131
 11
4386.7159
 21
2210.0131
  0
LINE
  8
_0-3_STR
  6
CONTINUOUS
 62
    7
 10
4386.7159
 20
2210.0131
 11
4381.3569
 21
2230.0131
  0
LINE
  8
_0-3_STR
  6
CONTINUOUS
 62
    7
 10
4386.7159
 20
2210.0131
 11
4386.7159
 21
2230.0131
  0
LINE
  8
_0-3_STR
  6
CONTINUOUS
 62
    7
 10
4381.3569
 20
2420.0131
 11
4386.7159
 21
2440.0131
  0
LINE
  8
_0-3_STR
  6
CONTINUOUS
 62
    7
 10
4386.7159
 20
2440.0131
 11
4392.0748
 21
2420.0131
  0
LINE
  8
_0-3_STR
  6
CONTINUOUS
 62
    7
 10
4386.7159
 20
2440.0131
 11
4386.7159
 21
2420.0131
  0
LINE
  8
_0-3_STR
  6
CONTINUOUS
 62
    7
 10
6213.0502
 20
3701.1763
 11
6233.0502
 21
3695.8173
  0
LINE
  8
_0-3_STR
  6
CONTINUOUS
 62
    7
 10
6233.0502
 20
3695.8173
 11
6213.0502
 21
3690.4583
  0
LINE
  8
_0-3_STR
  6
CONTINUOUS
 62
    7
 10
6233.0502
 20
3695.8173
 11
6213.0502
 21
3695.8173
  0
LINE
  8
_0-3_STR
  6
CONTINUOUS
 62
    7
 10
5373.0502
 20
3690.4583
 11
5353.0502
 21
3695.8173
  0
LINE
  8
_0-3_STR
  6
CONTINUOUS
 62
    7
 10
5353.0502
 20
3695.8173
 11
5373.0502
 21
3701.1763
  0
LINE
  8
_0-3_STR
  6
CONTINUOUS
 62
    7
 10
5353.0502
 20
3695.8173
 11
5373.0502
 21
3695.8173
  0
LINE
  8
_0-3_STR
  6
CONTINUOUS
 62
    7
 10
6714.3283
 20
2230.0131
 11
6708.9693
 21
2210.0131
  0
LINE
  8
_0-3_STR
  6
CONTINUOUS
 62
    7
 10
6708.9693
 20
2210.0131
 11
6703.6103
 21
2230.0131
  0
LINE
  8
_0-3_STR
  6
CONTINUOUS
 62
    7
 10
6708.9693
 20
2210.0131
 11
6708.9693
 21
2230.0131
  0
LINE
  8
_0-3_STR
  6
CONTINUOUS
 62
    7
 10
6703.6103
 20
3440.0131
 11
6708.9693
 21
3460.0131
  0
LINE
  8
_0-3_STR
  6
CONTINUOUS
 62
    7
 10
6708.9693
 20
3460.0131
 11
6714.3283
 21
3440.0131
  0
LINE
  8
_0-3_STR
  6
CONTINUOUS
 62
    7
 10
6708.9693
 20
3460.0131
 11
6708.9693
 21
3440.0131
  0
LINE
  8
_0-3_STR
  6
CONTINUOUS
 62
    7
 10
6532.2172
 20
2230.0131
 11
6526.8582
 21
2210.0131
  0
LINE
  8
_0-3_STR
  6
CONTINUOUS
 62
    7
 10
6526.8582
 20
2210.0131
 11
6521.4992
 21
2230.0131
  0
LINE
  8
_0-3_STR
  6
CONTINUOUS
 62
    7
 10
6526.8582
 20
2210.0131
 11
6526.8582
 21
2230.0131
  0
LINE
  8
_0-3_STR
  6
CONTINUOUS
 62
    7
 10
6521.4992
 20
2965.0131
 11
6526.8582
 21
2985.0131
  0
LINE
  8
_0-3_STR
  6
CONTINUOUS
 62
    7
 10
6526.8582
 20
2985.0131
 11
6532.2172
 21
2965.0131
  0
LINE
  8
_0-3_STR
  6
CONTINUOUS
 62
    7
 10
6526.8582
 20
2985.0131
 11
6526.8582
 21
2965.0131
  0
LINE
  8
_0-3_STR
  6
CONTINUOUS
 62
    7
 10
6273.0502
 20
1864.4696
 11
6293.0502
 21
1859.1106
  0
LINE
  8
_0-3_STR
  6
CONTINUOUS
 62
    7
 10
6293.0502
 20
1859.1106
 11
6273.0502
 21
1853.7516
  0
LINE
  8
_0-3_STR
  6
CONTINUOUS
 62
    7
 10
6293.0502
 20
1859.1106
 11
6273.0502
 21
1859.1106
  0
LINE
  8
_0-3_STR
  6
CONTINUOUS
 62
    7
 10
5313.0502
 20
1853.7516
 11
5293.0502
 21
1859.1106
  0
LINE
  8
_0-3_STR
  6
CONTINUOUS
 62
    7
 10
5293.0502
 20
1859.1106
 11
5313.0502
 21
1864.4696
  0
LINE
  8
_0-3_STR
  6
CONTINUOUS
 62
    7
 10
5293.0502
 20
1859.1106
 11
5313.0502
 21
1859.1106
  0
LINE
  8
_0-3_STR
  6
CONTINUOUS
 62
    7
 10
6223.0502
 20
2003.5426
 11
6243.0502
 21
1998.1836
  0
LINE
  8
_0-3_STR
  6
CONTINUOUS
 62
    7
 10
6243.0502
 20
1998.1836
 11
6223.0502
 21
1992.8247
  0
LINE
  8
_0-3_STR
  6
CONTINUOUS
 62
    7
 10
6243.0502
 20
1998.1836
 11
6223.0502
 21
1998.1836
  0
LINE
  8
_0-3_STR
  6
CONTINUOUS
 62
    7
 10
5363.0502
 20
1992.8247
 11
5343.0502
 21
1998.1836
  0
LINE
  8
_0-3_STR
  6
CONTINUOUS
 62
    7
 10
5343.0502
 20
1998.1836
 11
5363.0502
 21
2003.5426
  0
LINE
  8
_0-3_STR
  6
CONTINUOUS
 62
    7
 10
5343.0502
 20
1998.1836
 11
5363.0502
 21
1998.1836
  0
TEXT
  8
_0-3_STR
 62
    7
 10
2662.2163
 20
3662.2239
 40
90
 41
1
 50
0
  1
700
  0
TEXT
  8
_0-3_STR
 62
    4
 10
4374.1225
 20
2280.5673
 40
60
 41
1
 50
90
  1
230
  0
TEXT
  8
_0-3_STR
 62
    7
 10
3841.6792
 20
2509.7201
 40
90
 41
1
 50
90
  1
775
  0
TEXT
  8
_0-3_STR
 62
    7
 10
3868.6384
 20
1957.0574
 40
90
 41
1
 50
0
  1
1300
  0
TEXT
  8
_0-3_STR
 62
    7
 10
3410.3328
 20
1849.2208
 40
90
 41
1
 50
0
  1
2257
  0
TEXT
  8
_0-3_STR
 62
    7
 10
2877.8895
 20
1950.3177
 40
90
 41
1
 50
0
  1
800
  0
TEXT
  8
_0-3_STR
 62
    7
 10
5715.3403
 20
3695.9228
 40
90
 41
1
 50
0
  1
880
  0
TEXT
  8
_0-3_STR
 62
    7
 10
6706.0892
 20
2711.9137
 40
90
 41
1
 50
90
  1
1250
  0
TEXT
  8
_0-3_STR
 62
    7
 10
6524.1149
 20
2523.1996
 40
90
 41
1
 50
90
  1
775
  0
TEXT
  8
_0-3_STR
 62
    7
 10
5728.8199
 20
2010.9757
 40
90
 41
1
 50
0
  1
900
  0
TEXT
  8
_0-3_STR
 62
    7
 10
5728.8199
 20
1855.9606
 40
90
 41
1
 50
0
  1
1000
  0
TEXT
  8
_0-3_STR
 62
    7
 10
2156.7322
 20
4646.2329
 40
120
 41
1
 50
0
  1
KYT-8090WH
  0
TEXT
  8
_0-3_STR
 62
    7
 10
2391.207
 20
1957.0938
 40
75
 41
1
 50
0
  1
157
  0
ENDSEC
  0
EOF
