  0
SECTION
  2
HEADER
  9
$ACADVER
  1
AC1009
  9
$INSBASE
 10
0
 20
0
 30
0
  9
$EXTMIN
 10
0
 20
0
  9
$EXTMAX
 10
17820
 20
12600
  9
$LIMMIN
 10
0
 20
0
  9
$LIMMAX
 10
17820
 20
12600
  9
$LTSCALE
 40
60
  0
ENDSEC
  0
SECTION
  2
TABLES
  0
TABLE
  2
LTYPE
 70
     9
  0
LTYPE
  2
CONTINUOUS
 70
    64
  3
Ä└É³
 72
    65
 73
     0
 40
0.0
  0
LTYPE
  2
DASHED1
 70
    64
  3
--  --  --  --  --  --  --  --  
 72
    65
 73
     2
 40
2.5
 49
1.25
 49
-1.25
  0
LTYPE
  2
DASHED2
 70
    64
  3
----    ----    ----    ----    
 72
    65
 73
     2
 40
5.0
 49
2.5
 49
-2.5
  0
LTYPE
  2
DASHED3
 70
    64
  3
------  ------  ------  ------  
 72
    65
 73
     2
 40
5.0
 49
3.75
 49
-1.25
  0
LTYPE
  2
CENTER1
 70
    64
  3
----- - ----- - ----- - ----- - 
 72
    65
 73
     4
 40
10.0
 49
6.25
 49
-1.25
 49
1.25
 49
-1.25
  0
LTYPE
  2
CENTER2
 70
    64
  3
----------  --  ----------  --  
 72
    65
 73
     4
 40
20.0
 49
12.5
 49
-2.5
 49
2.5
 49
-2.5
  0
LTYPE
  2
PHANTOM1
 70
    64
  3
--- - - --- - - --- - - --- - - 
 72
    65
 73
     6
 40
10.0
 49
3.25
 49
-1.25
 49
1.25
 49
-1.25
 49
1.25
 49
-1.25
  0
LTYPE
  2
PHANTOM2
 70
    64
  3
--------  -  -  --------  -  -  
 72
    65
 73
     6
 40
20.0
 49
10.0
 49
-2.5
 49
1.25
 49
-2.5
 49
1.25
 49
-2.5
  0
LTYPE
  2
DOT
 70
    64
  3
-   -   -   -   -   -   -   -   
 72
    65
 73
     2
 40
2.5
 49
0.625
 49
-1.875
  0
LTYPE
  2
DUMMY
 70
    64
  3
â_â~ü[
 72
    65
 73
     0
 40
0.0
  0
LTYPE
  2
RAND1
 70
    64
  3
----- - ----- - ----- - ----- - 
 72
    65
 73
     4
 40
10.0
 49
6.25
 49
-1.25
 49
1.25
 49
-1.25
  0
LTYPE
  2
RAND2
 70
    64
  3
----------  --  ----------  --  
 72
    65
 73
     4
 40
20.0
 49
12.5
 49
-2.5
 49
2.5
 49
-2.5
  0
LTYPE
  2
RAND3
 70
    64
  3
--- - - --- - - --- - - --- - - 
 72
    65
 73
     6
 40
10.0
 49
3.25
 49
-1.25
 49
1.25
 49
-1.25
 49
1.25
 49
-1.25
  0
LTYPE
  2
RAND4
 70
    64
  3
--------  -  -  --------  -  -  
 72
    65
 73
     6
 40
20.0
 49
10.0
 49
-2.5
 49
1.25
 49
-2.5
 49
1.25
 49
-2.5
  0
LTYPE
  2
RAND5
 70
    64
  3
----- - ----- - ----- - ----- - 
 72
    65
 73
     4
 40
10.0
 49
6.25
 49
-1.25
 49
1.25
 49
-1.25
  0
LTYPE
  2
LONG1
 70
    64
  3
----------  --  ----------  --  
 72
    65
 73
     4
 40
20.0
 49
12.5
 49
-2.5
 49
2.5
 49
-2.5
  0
LTYPE
  2
LONG2
 70
    64
  3
--- - - --- - - --- - - --- - - 
 72
    65
 73
     6
 40
10.0
 49
3.25
 49
-1.25
 49
1.25
 49
-1.25
 49
1.25
 49
-1.25
  0
LTYPE
  2
LONG3
 70
    64
  3
--------  -  -  --------  -  -  
 72
    65
 73
     6
 40
20.0
 49
10.0
 49
-2.5
 49
1.25
 49
-2.5
 49
1.25
 49
-2.5
  0
LTYPE
  2
LONG4
 70
    64
  3
----- - ----- - ----- - ----- - 
 72
    65
 73
     4
 40
10.0
 49
6.25
 49
-1.25
 49
1.25
 49
-1.25
  0
LTYPE
  2
LONG5
 70
    64
  3
----------  --  ----------  --  
 72
    65
 73
     4
 40
20.0
 49
12.5
 49
-2.5
 49
2.5
 49
-2.5
  0
ENDTAB
  0
TABLE
  2
STYLE
  5
3
100
AcDbSymbolTable
 70
     1
  0
STYLE
  5
10
100
AcDbSymbolTableRecord
100
AcDbTextStyleTableRecord
  2
STANDARD
 70
     0
 40
0.0
 41
1.0
 50
0.0
 71
     0
 42
0.2
  3
txt
  4
bigfont.shx
  0
STYLE
  5
26
100
AcDbSymbolTableRecord
100
AcDbTextStyleTableRecord
  2
TATEGAKI
 70
    68
 40
0.0
 41
1.0
 50
0.0
 71
     0
 42
1.0
  3
txt
  4
bigfont.shx
  0
ENDTAB
  0
TABLE
  2
LAYER
 70
    3
  0
LAYER
  2
_0-0_
 70
   64
 62
    7
  6
CONTINUOUS
  0
LAYER
  2
_0-6_
 70
   64
 62
    7
  6
CONTINUOUS
  0
LAYER
  2
ADD_LINE
 70
   64
 62
    7
  6
CONTINUOUS
  0
ENDTAB
  0
ENDSEC
  0
SECTION
  2
BLOCKS
  0
ENDSEC
  0
SECTION
  2
ENTITIES
  0
CIRCLE
  8
_0-0_
  6
CONTINUOUS
 62
    1
 10
15795.816
 20
7917.5491
 40
1250
  0
LINE
  8
_0-0_
  6
CONTINUOUS
 62
    1
 10
4135.9833
 20
9406.3161
 11
17727.889
 21
9406.3161
  0
LINE
  8
_0-0_
  6
CENTER2
 62
    1
 10
5191.8835
 20
7906.3161
 11
18379.402
 21
7906.3161
  0
LINE
  8
_0-0_
  6
CONTINUOUS
 62
    7
 10
5273.0181
 20
6787.5491
 11
13513.018
 21
6787.5491
  0
LINE
  8
_0-0_
  6
CONTINUOUS
 62
    7
 10
13513.018
 20
6787.5491
 11
13513.018
 21
9047.5491
  0
LINE
  8
_0-0_
  6
CONTINUOUS
 62
    7
 10
13513.018
 20
9047.5491
 11
5273.0181
 21
9047.5491
  0
LINE
  8
_0-0_
  6
CONTINUOUS
 62
    7
 10
5273.0181
 20
9047.5491
 11
5273.0181
 21
6787.5491
  0
LINE
  8
_0-0_
  6
CONTINUOUS
 62
    7
 10
9579.3267
 20
8071.9364
 11
10779.326
 21
8071.9364
  0
LINE
  8
_0-0_
  6
CONTINUOUS
 62
    7
 10
10779.326
 20
8071.9364
 11
10779.326
 21
8571.9364
  0
LINE
  8
_0-0_
  6
CONTINUOUS
 62
    7
 10
10779.326
 20
8571.9364
 11
9579.3267
 21
8571.9364
  0
LINE
  8
_0-0_
  6
CONTINUOUS
 62
    7
 10
9579.3267
 20
8571.9364
 11
9579.3267
 21
8071.9364
  0
LINE
  8
_0-0_
  6
CONTINUOUS
 62
    7
 10
9970.2874
 20
7150.832
 11
10770.287
 21
7150.832
  0
LINE
  8
_0-0_
  6
CONTINUOUS
 62
    7
 10
10770.287
 20
7150.832
 11
10770.287
 21
7650.832
  0
LINE
  8
_0-0_
  6
CONTINUOUS
 62
    7
 10
10770.287
 20
7650.832
 11
9970.2874
 21
7650.832
  0
LINE
  8
_0-0_
  6
CONTINUOUS
 62
    7
 10
9970.2874
 20
7650.832
 11
9970.2874
 21
7150.832
  0
LINE
  8
_0-0_
  6
CONTINUOUS
 62
    1
 10
9970.2874
 20
6929.0468
 11
10770.287
 21
6929.0468
  0
LINE
  8
_0-0_
  6
CONTINUOUS
 62
    1
 10
9970.2874
 20
6929.0468
 11
10066.88
 21
6954.9288
  0
LINE
  8
_0-0_
  6
CONTINUOUS
 62
    1
 10
9970.2874
 20
6929.0468
 11
10066.88
 21
6903.1649
  0
LINE
  8
_0-0_
  6
CONTINUOUS
 62
    1
 10
10770.287
 20
6929.0468
 11
10673.694
 21
6954.9288
  0
LINE
  8
_0-0_
  6
CONTINUOUS
 62
    1
 10
10770.287
 20
6929.0468
 11
10673.694
 21
6903.1649
  0
LINE
  8
_0-0_
  6
CONTINUOUS
 62
    7
 10
9970.2874
 20
6929.0468
 11
9970.2874
 21
7052.6096
  0
LINE
  8
_0-0_
  6
CONTINUOUS
 62
    7
 10
10770.287
 20
6929.0468
 11
10770.287
 21
7052.6096
  0
LINE
  8
_0-0_
  6
CONTINUOUS
 62
    1
 10
9774.9394
 20
7150.832
 11
9774.9394
 21
7650.832
  0
LINE
  8
_0-0_
  6
CONTINUOUS
 62
    1
 10
9774.9394
 20
7150.832
 11
9749.0575
 21
7247.4246
  0
LINE
  8
_0-0_
  6
CONTINUOUS
 62
    1
 10
9774.9394
 20
7150.832
 11
9800.8213
 21
7247.4246
  0
LINE
  8
_0-0_
  6
CONTINUOUS
 62
    1
 10
9774.9394
 20
7650.832
 11
9749.0575
 21
7554.2394
  0
LINE
  8
_0-0_
  6
CONTINUOUS
 62
    1
 10
9774.9394
 20
7650.832
 11
9800.8213
 21
7554.2394
  0
LINE
  8
_0-0_
  6
CONTINUOUS
 62
    7
 10
9774.9394
 20
7150.832
 11
9831.1043
 21
7150.832
  0
LINE
  8
_0-0_
  6
CONTINUOUS
 62
    7
 10
9774.9394
 20
7650.832
 11
9831.1043
 21
7650.832
  0
LINE
  8
_0-0_
  6
CONTINUOUS
 62
    1
 10
9579.3267
 20
8793.7216
 11
10779.326
 21
8793.7216
  0
LINE
  8
_0-0_
  6
CONTINUOUS
 62
    1
 10
9579.3267
 20
8793.7216
 11
9675.9193
 21
8819.6035
  0
LINE
  8
_0-0_
  6
CONTINUOUS
 62
    1
 10
9579.3267
 20
8793.7216
 11
9675.9193
 21
8767.8397
  0
LINE
  8
_0-0_
  6
CONTINUOUS
 62
    1
 10
10779.326
 20
8793.7216
 11
10682.734
 21
8819.6035
  0
LINE
  8
_0-0_
  6
CONTINUOUS
 62
    1
 10
10779.326
 20
8793.7216
 11
10682.734
 21
8767.8397
  0
LINE
  8
_0-0_
  6
CONTINUOUS
 62
    7
 10
9579.3267
 20
8793.7216
 11
9579.3267
 21
8692.6248
  0
LINE
  8
_0-0_
  6
CONTINUOUS
 62
    7
 10
10779.326
 20
8793.7216
 11
10779.326
 21
8692.6248
  0
LINE
  8
_0-0_
  6
CONTINUOUS
 62
    7
 10
11388.177
 20
6955.0832
 11
12138.177
 21
6955.0832
  0
LINE
  8
_0-0_
  6
CONTINUOUS
 62
    7
 10
12138.177
 20
6955.0832
 11
12138.177
 21
8835.0832
  0
LINE
  8
_0-0_
  6
CONTINUOUS
 62
    7
 10
12138.177
 20
8835.0832
 11
11388.177
 21
8835.0832
  0
LINE
  8
_0-0_
  6
CONTINUOUS
 62
    7
 10
11388.177
 20
8835.0832
 11
11388.177
 21
6955.0832
  0
LINE
  8
_0-0_
  6
CONTINUOUS
 62
    7
 10
11413.177
 20
7392.5491
 11
12113.177
 21
7392.5491
  0
LINE
  8
_0-0_
  6
CONTINUOUS
 62
    7
 10
12113.177
 20
7392.5491
 11
12113.177
 21
8442.5491
  0
LINE
  8
_0-0_
  6
CONTINUOUS
 62
    7
 10
12113.177
 20
8442.5491
 11
11413.177
 21
8442.5491
  0
LINE
  8
_0-0_
  6
CONTINUOUS
 62
    7
 10
11413.177
 20
8442.5491
 11
11413.177
 21
7392.5491
  0
LINE
  8
_0-0_
  6
CONTINUOUS
 62
    7
 10
12931.406
 20
9029.6142
 11
12931.406
 21
6805.4841
  0
CIRCLE
  8
_0-0_
  6
CONTINUOUS
 62
    7
 10
13200.998
 20
7906.3161
 40
247.38073
  0
LINE
  8
_0-0_
  6
CENTER2
 62
    1
 10
15807.049
 20
9602.4962
 11
15807.049
 21
6131.5052
  0
LINE
  8
_0-0_
  6
CONTINUOUS
 62
    1
 10
4619.0015
 20
7906.3161
 11
4619.0015
 21
9406.3161
  0
LINE
  8
_0-0_
  6
CONTINUOUS
 62
    1
 10
4619.0015
 20
7906.3161
 11
4619.0015
 21
6406.3161
  0
LINE
  8
_0-0_
  6
CONTINUOUS
 62
    1
 10
4619.0015
 20
6406.3161
 11
4619.0015
 21
9164.4099
  0
LINE
  8
_0-0_
  6
CONTINUOUS
 62
    1
 10
18491.732
 20
14129.387
 11
18491.732
 21
14095.688
  0
LINE
  8
_0-6_
  6
CONTINUOUS
 62
    7
 10
4405.5748
 20
9406.3161
 11
4529.1376
 21
9406.3161
  0
LINE
  8
_0-6_
  6
CONTINUOUS
 62
    7
 10
4405.5748
 20
6406.3161
 11
4529.1376
 21
6406.3161
  0
LINE
  8
_0-6_
  6
CONTINUOUS
 62
    1
 10
4113.5173
 20
6406.3161
 11
17750.355
 21
6406.3161
  0
LINE
  8
_0-6_
  6
CONTINUOUS
 62
    7
 10
17357.201
 20
8052.3449
 11
17357.201
 21
7782.7534
  0
LINE
  8
_0-6_
  6
CONTINUOUS
 62
    7
 10
17671.724
 20
7984.947
 11
17671.724
 21
7827.6853
  0
LINE
  8
_0-6_
  6
CONTINUOUS
 62
    7
 10
17357.201
 20
7984.947
 11
17671.724
 21
7984.947
  0
TEXT
  8
_0-0_
 62
    6
 10
9997.5856
 20
8796.4041
 40
150
 41
1
 50
0
  1
1,200
  0
TEXT
  8
_0-0_
 62
    6
 10
10236.113
 20
6920.3767
 40
150
 41
1
 50
0
  1
800
  0
TEXT
  8
_0-6_
 62
    6
 10
4189.863
 20
13501.575
 40
240
 41
1
 50
0
  1
âxârü[âéü[âïìHû@Ä{ìHâGâèâA
  0
LINE
  8
_0-6_
  6
CONTINUOUS
 62
    1
 10
11388.177
 20
8921.9178
 11
12138.177
 21
8921.9178
  0
LINE
  8
_0-6_
  6
CONTINUOUS
 62
    1
 10
11388.177
 20
8921.9178
 11
11484.769
 21
8947.7997
  0
LINE
  8
_0-6_
  6
CONTINUOUS
 62
    1
 10
11388.177
 20
8921.9178
 11
11484.769
 21
8896.0359
  0
LINE
  8
_0-6_
  6
CONTINUOUS
 62
    1
 10
12138.177
 20
8921.9178
 11
12041.584
 21
8947.7997
  0
LINE
  8
_0-6_
  6
CONTINUOUS
 62
    1
 10
12138.177
 20
8921.9178
 11
12041.584
 21
8896.0359
  0
LINE
  8
_0-6_
  6
CONTINUOUS
 62
    7
 10
11388.177
 20
8921.9178
 11
11388.177
 21
8876.7123
  0
LINE
  8
_0-6_
  6
CONTINUOUS
 62
    7
 10
12138.177
 20
8921.9178
 11
12138.177
 21
8876.7123
  0
LINE
  8
_0-6_
  6
CONTINUOUS
 62
    1
 10
11413.177
 20
8492.4657
 11
12113.177
 21
8492.4657
  0
LINE
  8
_0-6_
  6
CONTINUOUS
 62
    1
 10
11413.177
 20
8492.4657
 11
11509.769
 21
8518.3476
  0
LINE
  8
_0-6_
  6
CONTINUOUS
 62
    1
 10
11413.177
 20
8492.4657
 11
11509.769
 21
8466.5838
  0
LINE
  8
_0-6_
  6
CONTINUOUS
 62
    1
 10
12113.177
 20
8492.4657
 11
12016.584
 21
8518.3476
  0
LINE
  8
_0-6_
  6
CONTINUOUS
 62
    1
 10
12113.177
 20
8492.4657
 11
12016.584
 21
8466.5838
  0
LINE
  8
_0-6_
  6
CONTINUOUS
 62
    7
 10
11413.177
 20
8492.4657
 11
11413.177
 21
8458.5616
  0
LINE
  8
_0-6_
  6
CONTINUOUS
 62
    7
 10
12113.177
 20
8492.4657
 11
12113.177
 21
8458.5616
  0
LINE
  8
_0-6_
  6
CONTINUOUS
 62
    1
 10
12289.109
 20
8835.0832
 11
12289.109
 21
6955.0832
  0
LINE
  8
_0-6_
  6
CONTINUOUS
 62
    1
 10
12289.109
 20
8835.0832
 11
12314.991
 21
8738.4906
  0
LINE
  8
_0-6_
  6
CONTINUOUS
 62
    1
 10
12289.109
 20
8835.0832
 11
12263.227
 21
8738.4906
  0
LINE
  8
_0-6_
  6
CONTINUOUS
 62
    1
 10
12289.109
 20
6955.0832
 11
12314.991
 21
7051.6757
  0
LINE
  8
_0-6_
  6
CONTINUOUS
 62
    1
 10
12289.109
 20
6955.0832
 11
12263.227
 21
7051.6757
  0
LINE
  8
_0-6_
  6
CONTINUOUS
 62
    7
 10
12289.109
 20
8835.0832
 11
12221.301
 21
8835.0832
  0
LINE
  8
_0-6_
  6
CONTINUOUS
 62
    7
 10
12289.109
 20
6955.0832
 11
12221.301
 21
6955.0832
  0
LINE
  8
_0-6_
  6
CONTINUOUS
 62
    1
 10
4418.6757
 20
9406.3161
 11
4418.6757
 21
6406.3161
  0
LINE
  8
_0-6_
  6
CONTINUOUS
 62
    1
 10
4418.6757
 20
9406.3161
 11
4449.734
 21
9290.405
  0
LINE
  8
_0-6_
  6
CONTINUOUS
 62
    1
 10
4418.6757
 20
9406.3161
 11
4387.6174
 21
9290.405
  0
LINE
  8
_0-6_
  6
CONTINUOUS
 62
    1
 10
4418.6757
 20
6406.3161
 11
4449.734
 21
6522.2272
  0
LINE
  8
_0-6_
  6
CONTINUOUS
 62
    1
 10
4418.6757
 20
6406.3161
 11
4387.6174
 21
6522.2272
  0
LINE
  8
_0-6_
  6
CONTINUOUS
 62
    7
 10
4418.6757
 20
9406.3161
 11
4550.898
 21
9406.3161
  0
LINE
  8
_0-6_
  6
CONTINUOUS
 62
    7
 10
4418.6757
 20
6406.3161
 11
4550.898
 21
6406.3161
  0
TEXT
  8
_0-6_
 62
    6
 10
4388.6757
 20
7756.3161
 40
120
 41
1
 50
90
  1
3,000
  0
LINE
  8
_0-6_
  6
CONTINUOUS
 62
    1
 10
5136.4541
 20
9047.5491
 11
5136.4541
 21
6787.5491
  0
LINE
  8
_0-6_
  6
CONTINUOUS
 62
    1
 10
5136.4541
 20
9047.5491
 11
5167.5124
 21
8931.638
  0
LINE
  8
_0-6_
  6
CONTINUOUS
 62
    1
 10
5136.4541
 20
9047.5491
 11
5105.3958
 21
8931.638
  0
LINE
  8
_0-6_
  6
CONTINUOUS
 62
    1
 10
5136.4541
 20
6787.5491
 11
5167.5124
 21
6903.4602
  0
LINE
  8
_0-6_
  6
CONTINUOUS
 62
    1
 10
5136.4541
 20
6787.5491
 11
5105.3958
 21
6903.4602
  0
LINE
  8
_0-6_
  6
CONTINUOUS
 62
    7
 10
5136.4541
 20
9047.5491
 11
5249.7875
 21
9047.5491
  0
LINE
  8
_0-6_
  6
CONTINUOUS
 62
    7
 10
5136.4541
 20
6787.5491
 11
5249.7875
 21
6787.5491
  0
TEXT
  8
_0-6_
 62
    6
 10
5106.4541
 20
7767.5491
 40
120
 41
1
 50
90
  1
2,260
  0
LINE
  8
_0-6_
  6
CONTINUOUS
 62
    1
 10
5262.8584
 20
10114.761
 11
13502.858
 21
10114.761
  0
LINE
  8
_0-6_
  6
CONTINUOUS
 62
    1
 10
5262.8584
 20
10114.761
 11
5359.451
 21
10140.643
  0
LINE
  8
_0-6_
  6
CONTINUOUS
 62
    1
 10
5262.8584
 20
10114.761
 11
5359.451
 21
10088.879
  0
LINE
  8
_0-6_
  6
CONTINUOUS
 62
    1
 10
13502.858
 20
10114.761
 11
13406.265
 21
10140.643
  0
LINE
  8
_0-6_
  6
CONTINUOUS
 62
    1
 10
13502.858
 20
10114.761
 11
13406.265
 21
10088.879
  0
LINE
  8
_0-6_
  6
CONTINUOUS
 62
    7
 10
13502.858
 20
10114.761
 11
13502.858
 21
9946.2666
  0
LINE
  8
_0-6_
  6
CONTINUOUS
 62
    1
 10
13502.858
 20
10114.761
 11
15502.858
 21
10114.761
  0
LINE
  8
_0-6_
  6
CONTINUOUS
 62
    1
 10
13502.858
 20
10114.761
 11
13599.451
 21
10140.643
  0
LINE
  8
_0-6_
  6
CONTINUOUS
 62
    1
 10
13502.858
 20
10114.761
 11
13599.451
 21
10088.879
  0
LINE
  8
_0-6_
  6
CONTINUOUS
 62
    1
 10
15502.858
 20
10114.761
 11
15406.265
 21
10140.643
  0
LINE
  8
_0-6_
  6
CONTINUOUS
 62
    1
 10
15502.858
 20
10114.761
 11
15406.265
 21
10088.879
  0
LINE
  8
_0-6_
  6
CONTINUOUS
 62
    7
 10
13502.858
 20
10114.761
 11
13502.858
 21
9946.2666
  0
LINE
  8
_0-6_
  6
CONTINUOUS
 62
    7
 10
15502.858
 20
10114.761
 11
15502.858
 21
9946.2666
  0
LINE
  8
_0-6_
  6
CONTINUOUS
 62
    1
 10
15502.858
 20
10114.761
 11
17502.858
 21
10114.761
  0
LINE
  8
_0-6_
  6
CONTINUOUS
 62
    1
 10
15502.858
 20
10114.761
 11
15599.451
 21
10140.643
  0
LINE
  8
_0-6_
  6
CONTINUOUS
 62
    1
 10
15502.858
 20
10114.761
 11
15599.451
 21
10088.879
  0
LINE
  8
_0-6_
  6
CONTINUOUS
 62
    1
 10
17502.858
 20
10114.761
 11
17406.265
 21
10140.643
  0
LINE
  8
_0-6_
  6
CONTINUOUS
 62
    1
 10
17502.858
 20
10114.761
 11
17406.265
 21
10088.879
  0
LINE
  8
_0-6_
  6
CONTINUOUS
 62
    7
 10
15502.858
 20
10114.761
 11
15502.858
 21
9935.0336
  0
LINE
  8
_0-6_
  6
CONTINUOUS
 62
    7
 10
17502.858
 20
10114.761
 11
17502.858
 21
9935.0336
  0
LINE
  8
_0-6_
  6
CONTINUOUS
 62
    1
 10
5259.232
 20
10109.154
 11
4259.232
 21
10109.154
  0
LINE
  8
_0-6_
  6
CONTINUOUS
 62
    1
 10
5259.232
 20
10109.154
 11
5143.3209
 21
10078.096
  0
LINE
  8
_0-6_
  6
CONTINUOUS
 62
    1
 10
5259.232
 20
10109.154
 11
5143.3209
 21
10140.212
  0
LINE
  8
_0-6_
  6
CONTINUOUS
 62
    1
 10
4259.232
 20
10109.154
 11
4375.1431
 21
10078.096
  0
LINE
  8
_0-6_
  6
CONTINUOUS
 62
    1
 10
4259.232
 20
10109.154
 11
4375.1431
 21
10140.212
  0
LINE
  8
_0-6_
  6
CONTINUOUS
 62
    7
 10
5259.232
 20
10109.154
 11
5259.232
 21
9948.5986
  0
LINE
  8
_0-6_
  6
CONTINUOUS
 62
    7
 10
4259.232
 20
10109.154
 11
4259.232
 21
9948.5986
  0
TEXT
  8
_0-6_
 62
    6
 10
4617.0092
 20
10146.932
 40
120
 41
1
 50
0
  1
1,000
  0
TEXT
  8
_0-6_
 62
    6
 10
9150.3465
 20
10146.932
 40
150
 41
1
 50
0
  1
8,240
  0
TEXT
  8
_0-6_
 62
    6
 10
14325.906
 20
10146.932
 40
150
 41
1
 50
0
  1
2,000
  0
TEXT
  8
_0-6_
 62
    6
 10
16252.575
 20
10146.932
 40
150
 41
1
 50
0
  1
2,000
  0
LINE
  8
_0-6_
  6
CONTINUOUS
 62
    7
 10
7522.7659
 20
7386.4846
 11
8222.7659
 21
7386.4846
  0
LINE
  8
_0-6_
  6
CONTINUOUS
 62
    7
 10
8222.7659
 20
7386.4846
 11
8222.7659
 21
8436.4846
  0
LINE
  8
_0-6_
  6
CONTINUOUS
 62
    7
 10
8222.7659
 20
8436.4846
 11
7522.7659
 21
8436.4846
  0
LINE
  8
_0-6_
  6
CONTINUOUS
 62
    7
 10
7522.7659
 20
8436.4846
 11
7522.7659
 21
7386.4846
  0
LINE
  8
_0-6_
  6
CONTINUOUS
 62
    7
 10
5297.1331
 20
9043.7502
 11
5297.1331
 21
6797.3064
  0
LINE
  8
_0-6_
  6
CONTINUOUS
 62
    7
 10
5723.9936
 20
9043.7502
 11
5723.9936
 21
6790.0715
  0
LINE
  8
_0-6_
  6
CONTINUOUS
 62
    7
 10
6031.4779
 20
9050.9851
 11
6031.4779
 21
6793.689
  0
LINE
  8
_0-6_
  6
CONTINUOUS
 62
    7
 10
8222.7659
 20
8286.4846
 11
7522.7659
 21
8286.4846
  0
LINE
  8
_0-6_
  6
CONTINUOUS
 62
    7
 10
8222.7659
 20
8136.4846
 11
7522.7659
 21
8136.4846
  0
LINE
  8
_0-6_
  6
CONTINUOUS
 62
    7
 10
8222.7659
 20
7986.4846
 11
7522.7659
 21
7986.4846
  0
LINE
  8
_0-6_
  6
CONTINUOUS
 62
    7
 10
8222.7659
 20
7836.4846
 11
7522.7659
 21
7836.4846
  0
LINE
  8
_0-6_
  6
CONTINUOUS
 62
    7
 10
8222.7659
 20
7686.4846
 11
7522.7659
 21
7686.4846
  0
LINE
  8
_0-6_
  6
CONTINUOUS
 62
    7
 10
8222.7659
 20
7536.4846
 11
7522.7659
 21
7536.4846
  0
TEXT
  8
_0-6_
 62
    6
 10
6660.9162
 20
6533.2317
 40
180
 41
1
 50
0
  1
òÓô╣
  0
LINE
  8
_0-6_
  6
CONTINUOUS
 62
    7
 10
6660.9162
 20
6525.9968
 11
9656.1745
 21
6525.9968
  0
TEXT
  8
_0-6_
 62
    6
 10
11667.483
 20
8899.0517
 40
150
 41
1
 50
0
  1
750
  0
TEXT
  8
_0-6_
 62
    6
 10
11667.483
 20
8479.4261
 40
150
 41
1
 50
0
  1
700
  0
TEXT
  8
_0-6_
 62
    6
 10
12463.324
 20
7712.5243
 40
150
 41
1
 50
90
  1
1,880
  0
TEXT
  8
_0-0_
 62
    6
 10
9771.9333
 20
7278.4288
 40
150
 41
1
 50
90
  1
500
  0
LINE
  8
_0-6_
  6
CONTINUOUS
 62
    7
 10
7309.726
 20
9025.8904
 11
7309.726
 21
6774.6575
  0
TEXT
  8
_0-6_
 62
    6
 10
14578.767
 20
5662.6027
 40
180
 41
1
 50
0
  1
ö¡Éié╠ùºìBü@2000ü`2500âË
  0
TEXT
  8
_0-6_
 62
    6
 10
6496.0273
 20
8307.1232
 40
180
 41
1
 50
0
  1
ç@
  0
TEXT
  8
_0-6_
 62
    6
 10
10374.657
 20
8347.8082
 40
150
 41
1
 50
0
  1
çA
  0
TEXT
  8
_0-6_
 62
    6
 10
10306.849
 20
7262.8767
 40
150
 41
1
 50
0
  1
çB
  0
TEXT
  8
_0-6_
 62
    6
 10
11663.013
 20
7439.178
 40
150
 41
1
 50
0
  1
çC
  0
TEXT
  8
_0-6_
 62
    6
 10
11676.575
 20
7086.5753
 40
150
 41
1
 50
0
  1
çD
  0
TEXT
  8
_0-6_
 62
    6
 10
7770.8219
 20
8117.2602
 40
180
 41
1
 50
0
  1
çE
  0
TEXT
  8
_0-6_
 62
    6
 10
5858.6301
 20
12240
 40
180
 41
1
 50
0
  1
ç@4tonÏ▒©┌░¦ÄÈü@2.9ton
  0
TEXT
  8
_0-6_
 62
    6
 10
12300.41
 20
12226.438
 40
180
 41
1
 50
0
  1
çBùnÉ┌ï@üi500ü~1200ü~1000Hüj
  0
TEXT
  8
_0-6_
 62
    6
 10
5858.6301
 20
11616.164
 40
180
 41
1
 50
0
  1
çCû¹ê│ıã»─22kw
  0
TEXT
  8
_0-6_
 62
    6
 10
8801.5068
 20
11656.849
 40
180
 41
1
 50
0
  1
çDû¹ê│ıã»─22kwü{22kw
  0
TEXT
  8
_0-6_
 62
    6
 10
12354.657
 20
11670.41
 40
180
 41
1
 50
0
  1
çEì|èÃìÌüiâ┐âËü~1000éìéìüj
  0
TEXT
  8
_0-6_
 62
    6
 10
6645.2054
 20
5730.4109
 40
180
 41
1
 50
0
  1
╩ÌÀ¡░ÐÄÈé═4tonıã»©ÄÈéãô³éÛèÀéªé┼Ägùp
  0
TEXT
  8
_0-6_
 62
    6
 10
8774.3835
 20
12240
 40
180
 41
1
 50
0
  1
çA©ÌÎ│─╬▀¦╠▀(500ü~1200ü~1000Hüj
  0
LINE
  8
_0-6_
  6
CONTINUOUS
 62
    1
 10
14926.768
 20
7031.9235
 11
16694.535
 21
8799.6905
  0
LINE
  8
_0-6_
  6
CONTINUOUS
 62
    1
 10
14926.768
 20
7031.9235
 11
14976.768
 21
7118.526
  0
LINE
  8
_0-6_
  6
CONTINUOUS
 62
    1
 10
14926.768
 20
7031.9235
 11
15013.371
 21
7081.9235
  0
LINE
  8
_0-6_
  6
CONTINUOUS
 62
    1
 10
16694.535
 20
8799.6905
 11
16607.933
 21
8749.6905
  0
LINE
  8
_0-6_
  6
CONTINUOUS
 62
    1
 10
16694.535
 20
8799.6905
 11
16644.535
 21
8713.0879
  0
LINE
  8
_0-6_
  6
CENTER2
 62
    1
 10
14808.822
 20
7149.8698
 11
14824.887
 21
7165.9345
  0
TEXT
  8
_0-6_
 62
    6
 10
15975.616
 20
8144.3835
 40
150
 41
1
 50
45
  1
2,500
  0
LINE
  8
_0-6_
  6
CONTINUOUS
 62
    7
 10
16775.01
 20
7782.7534
 11
17357.201
 21
7782.7534
  0
LINE
  8
_0-0_
  6
CONTINUOUS
 62
    7
 10
13032.503
 20
7749.0544
 11
16775.753
 21
7749.0544
  0
LINE
  8
_0-6_
  6
CONTINUOUS
 62
    7
 10
17671.724
 20
7827.6853
 11
17358.924
 21
7827.6853
  0
LINE
  8
_0-6_
  6
CONTINUOUS
 62
    7
 10
16779.303
 20
8052.3449
 11
17357.201
 21
8052.3449
  0
LINE
  8
_0-0_
  6
CONTINUOUS
 62
    7
 10
13010.037
 20
8074.8108
 11
16775.753
 21
8074.8108
  0
LINE
  8
_0-6_
  6
CONTINUOUS
 62
    7
 10
16775.753
 20
8074.8108
 11
16775.753
 21
7749.0544
  0
ENDSEC
  0
EOF
